ISO-10303-21;
HEADER;
FILE_DESCRIPTION (( 'STEP AP203' ),
    '1' );
FILE_NAME ('20137-E0W.STEP',
    '2019-07-16T11:12:47',
    ( '' ),
    ( '' ),
    'SwSTEP 2.0',
    'SolidWorks 2018',
    '' );
FILE_SCHEMA (( 'CONFIG_CONTROL_DESIGN' ));
ENDSEC;

DATA;
#1 = ORIENTED_EDGE ( 'NONE', *, *, #238, .T. ) ;
#2 = EDGE_CURVE ( 'NONE', #30, #109, #86, .T. ) ;
#3 = AXIS2_PLACEMENT_3D ( 'NONE', #57, #244, #103 ) ;
#4 = CALENDAR_DATE ( 2019, 16, 7 ) ;
#5 = CARTESIAN_POINT ( 'NONE',  ( 0.0000000000000000000, 1.250155957643166227, 0.06471665899244838371 ) ) ;
#6 = CIRCLE ( 'NONE', #271, 1.250155957643169558 ) ;
#7 = CC_DESIGN_APPROVAL ( #153, ( #54 ) ) ;
#8 = DIRECTION ( 'NONE',  ( 8.659560562355046257E-17, 0.7071067811865564545, 0.7071067811865384689 ) ) ;
#9 = DATE_AND_TIME ( #156, #208 ) ;
#10 = DIRECTION ( 'NONE',  ( 0.0000000000000000000, -3.061515884555943639E-16, 1.000000000000000000 ) ) ;
#11 = VECTOR ( 'NONE', #8, 100.0000000000000000 ) ;
#12 = ORIENTED_EDGE ( 'NONE', *, *, #250, .T. ) ;
#13 = FACE_OUTER_BOUND ( 'NONE', #204, .T. ) ;
#14 = EDGE_LOOP ( 'NONE', ( #298, #124, #163 ) ) ;
#15 = EDGE_CURVE ( 'NONE', #249, #279, #132, .T. ) ;
#16 = DIRECTION ( 'NONE',  ( -1.000000000000000000, 0.0000000000000000000, 0.0000000000000000000 ) ) ;
#17 = CARTESIAN_POINT ( 'NONE',  ( 0.0000000000000000000, 1.299062420134777881E-15, -10.70999999999999730 ) ) ;
#18 = LINE ( 'NONE', #201, #60 ) ;
#19 = ORIENTED_EDGE ( 'NONE', *, *, #250, .F. ) ;
#20 = CARTESIAN_POINT ( 'NONE',  ( 0.0000000000000000000, 4.849441161136655658E-17, -0.1170000000000013668 ) ) ;
#21 = EDGE_CURVE ( 'NONE', #82, #263, #18, .T. ) ;
#22 = APPROVAL_STATUS ( 'not_yet_approved' ) ;
#23 = APPROVAL_ROLE ( '' ) ;
#24 =( LENGTH_UNIT ( ) NAMED_UNIT ( * ) SI_UNIT ( .CENTI., .METRE. ) );
#25 = CIRCLE ( 'NONE', #292, 10.84700000000000131 ) ;
#26 = ORIENTED_EDGE ( 'NONE', *, *, #221, .T. ) ;
#27 = LINE ( 'NONE', #242, #260 ) ;
#28 = CC_DESIGN_SECURITY_CLASSIFICATION ( #110, ( #54 ) ) ;
#29 = CARTESIAN_POINT ( 'NONE',  ( 0.0000000000000000000, 1.299062420134777881E-15, -10.70999999999999730 ) ) ;
#30 = VERTEX_POINT ( 'NONE', #180 ) ;
#31 = DIRECTION ( 'NONE',  ( 0.0000000000000000000, 1.000000000000000000, 3.122502256758252277E-16 ) ) ;
#32 = PRODUCT_DEFINITION ( 'UNKNOWN', '', #54, #95 ) ;
#33 = CC_DESIGN_DATE_AND_TIME_ASSIGNMENT ( #217, #247, ( #110 ) ) ;
#34 = AXIS2_PLACEMENT_3D ( 'NONE', #29, #74, #275 ) ;
#35 = DIRECTION ( 'NONE',  ( 0.0000000000000000000, -1.000000000000000000, -3.073328992872296860E-16 ) ) ;
#36 = EDGE_LOOP ( 'NONE', ( #75, #264, #26, #203 ) ) ;
#37 = DIRECTION ( 'NONE',  ( 0.0000000000000000000, 1.000000000000000000, 3.073328992872296860E-16 ) ) ;
#38 = DATE_TIME_ROLE ( 'creation_date' ) ;
#39 = APPLICATION_PROTOCOL_DEFINITION ( 'international standard', 'config_control_design', 1994, #155 ) ;
#40 = ORIENTED_EDGE ( 'NONE', *, *, #85, .T. ) ;
#41 =( NAMED_UNIT ( * ) PLANE_ANGLE_UNIT ( ) SI_UNIT ( $, .RADIAN. ) );
#42 = PRODUCT_RELATED_PRODUCT_CATEGORY ( 'detail', '', ( #56 ) ) ;
#43 = DATE_AND_TIME ( #187, #287 ) ;
#44 = ORIENTED_EDGE ( 'NONE', *, *, #149, .F. ) ;
#45 = EDGE_CURVE ( 'NONE', #263, #249, #188, .T. ) ;
#46 = ADVANCED_FACE ( 'NONE', ( #182 ), #48, .T. ) ;
#47 = DATE_AND_TIME ( #165, #59 ) ;
#48 = CYLINDRICAL_SURFACE ( 'NONE', #205, 1.269999999999999574 ) ;
#49 = ORIENTED_EDGE ( 'NONE', *, *, #130, .F. ) ;
#50 = CARTESIAN_POINT ( 'NONE',  ( 0.0000000000000000000, 1.269999999999999574, -0.1369999999999996221 ) ) ;
#51 = APPROVAL_PERSON_ORGANIZATION ( #113, #114, #104 ) ;
#52 = ADVANCED_FACE ( 'NONE', ( #123 ), #166, .T. ) ;
#53 = FACE_OUTER_BOUND ( 'NONE', #14, .T. ) ;
#54 = PRODUCT_DEFINITION_FORMATION_WITH_SPECIFIED_SOURCE ( 'ANY', '', #56, .NOT_KNOWN. ) ;
#55 = ORIENTED_EDGE ( 'NONE', *, *, #100, .F. ) ;
#56 = PRODUCT ( '20137-E0W', '20137-E0W', '', ( #196 ) ) ;
#57 = CARTESIAN_POINT ( 'NONE',  ( 0.0000000000000000000, 1.299062420134777881E-15, -10.70999999999999730 ) ) ;
#58 = CARTESIAN_POINT ( 'NONE',  ( 0.0000000000000000000, -3.048334686765643781E-19, 0.04239569455188885172 ) ) ;
#59 = LOCAL_TIME ( 7, 12, 47.00000000000000000, #118 ) ;
#60 = VECTOR ( 'NONE', #91, 100.0000000000000142 ) ;
#61 =( NAMED_UNIT ( * ) SI_UNIT ( $, .STERADIAN. ) SOLID_ANGLE_UNIT ( ) );
#62 = CC_DESIGN_PERSON_AND_ORGANIZATION_ASSIGNMENT ( #190, #83, ( #54 ) ) ;
#63 = ADVANCED_BREP_SHAPE_REPRESENTATION ( '20137-E0W', ( #174, #274 ), #248 ) ;
#64 = APPROVAL_DATE_TIME ( #47, #153 ) ;
#65 = PERSON_AND_ORGANIZATION_ROLE ( 'classification_officer' ) ;
#66 = SECURITY_CLASSIFICATION_LEVEL ( 'unclassified' ) ;
#67 = LINE ( 'NONE', #139, #11 ) ;
#68 = ORIENTED_EDGE ( 'NONE', *, *, #2, .T. ) ;
#69 = CARTESIAN_POINT ( 'NONE',  ( 0.0000000000000000000, 4.849441161136655658E-17, -0.1170000000000013668 ) ) ;
#70 = SPHERICAL_SURFACE ( 'NONE', #289, 10.84700000000000131 ) ;
#71 = CC_DESIGN_APPROVAL ( #219, ( #110 ) ) ;
#72 = PERSON ( 'UNSPECIFIED', 'UNSPECIFIED', 'UNSPECIFIED', ('UNSPECIFIED'), ('UNSPECIFIED'), ('UNSPECIFIED') ) ;
#73 = DIRECTION ( 'NONE',  ( 0.0000000000000000000, 1.000000000000000000, 3.073328992872296860E-16 ) ) ;
#74 = DIRECTION ( 'NONE',  ( 1.000000000000000000, 0.0000000000000000000, -0.0000000000000000000 ) ) ;
#75 = ORIENTED_EDGE ( 'NONE', *, *, #284, .T. ) ;
#76 = PRODUCT_DEFINITION_SHAPE ( 'NONE', 'NONE',  #32 ) ;
#77 = CARTESIAN_POINT ( 'NONE',  ( 0.0000000000000000000, -3.048334686773540094E-19, 0.04239569455188885172 ) ) ;
#78 = DIRECTION ( 'NONE',  ( 0.0000000000000000000, 1.000000000000000000, 3.061515884555943146E-16 ) ) ;
#79 = DIRECTION ( 'NONE',  ( -0.0000000000000000000, 3.061515884556132472E-16, -1.000000000000000000 ) ) ;
#80 = ORIENTED_EDGE ( 'NONE', *, *, #194, .T. ) ;
#81 = DIRECTION ( 'NONE',  ( 0.0000000000000000000, -3.061515884556132472E-16, 1.000000000000000000 ) ) ;
#82 = VERTEX_POINT ( 'NONE', #5 ) ;
#83 = PERSON_AND_ORGANIZATION_ROLE ( 'design_supplier' ) ;
#84 = PERSON_AND_ORGANIZATION_ROLE ( 'design_owner' ) ;
#85 = EDGE_CURVE ( 'NONE', #109, #249, #67, .T. ) ;
#86 = CIRCLE ( 'NONE', #199, 1.250000000000000222 ) ;
#87 = ORIENTED_EDGE ( 'NONE', *, *, #227, .F. ) ;
#88 = ORGANIZATION ( 'UNSPECIFIED', 'UNSPECIFIED', '' ) ;
#89 = FACE_OUTER_BOUND ( 'NONE', #290, .T. ) ;
#90 = ORIENTED_EDGE ( 'NONE', *, *, #21, .F. ) ;
#91 = DIRECTION ( 'NONE',  ( 0.0000000000000000000, 0.6644234100173498359, -0.7473563622669687767 ) ) ;
#92 = DIRECTION ( 'NONE',  ( -0.0000000000000000000, 3.061515884555943146E-16, -1.000000000000000000 ) ) ;
#93 = AXIS2_PLACEMENT_3D ( 'NONE', #189, #291, #262 ) ;
#94 = CLOSED_SHELL ( 'NONE', ( #280, #135, #52, #141, #237, #231, #46, #276, #254 ) ) ;
#95 = DESIGN_CONTEXT ( 'detailed design', #155, 'design' ) ;
#96 = PERSON_AND_ORGANIZATION ( #72, #88 ) ;
#97 = DIRECTION ( 'NONE',  ( 0.0000000000000000000, -3.061515884555943639E-16, 1.000000000000000000 ) ) ;
#98 = ORIENTED_EDGE ( 'NONE', *, *, #221, .F. ) ;
#99 = CARTESIAN_POINT ( 'NONE',  ( 1.555301434917138087E-16, -1.269999999999999574, -0.1170000000000017554 ) ) ;
#100 = EDGE_CURVE ( 'NONE', #109, #30, #220, .T. ) ;
#101 = DIRECTION ( 'NONE',  ( 0.0000000000000000000, -1.000000000000000000, -3.122502256758252277E-16 ) ) ;
#102 = COORDINATED_UNIVERSAL_TIME_OFFSET ( 5, 0, .BEHIND. ) ;
#103 = DIRECTION ( 'NONE',  ( -1.224646799147353207E-16, 1.000000000000000000, 0.0000000000000000000 ) ) ;
#104 = APPROVAL_ROLE ( '' ) ;
#105 = CC_DESIGN_DATE_AND_TIME_ASSIGNMENT ( #9, #38, ( #32 ) ) ;
#106 = DIRECTION ( 'NONE',  ( 1.000000000000000000, 0.0000000000000000000, 0.0000000000000000000 ) ) ;
#107 = LINE ( 'NONE', #282, #157 ) ;
#108 = APPROVAL_STATUS ( 'not_yet_approved' ) ;
#109 = VERTEX_POINT ( 'NONE', #181 ) ;
#110 = SECURITY_CLASSIFICATION ( '', '', #66 ) ;
#111 = FACE_OUTER_BOUND ( 'NONE', #213, .T. ) ;
#112 = ORIENTED_EDGE ( 'NONE', *, *, #284, .F. ) ;
#113 = PERSON_AND_ORGANIZATION ( #72, #88 ) ;
#114 = APPROVAL ( #127, 'UNSPECIFIED' ) ;
#115 = DIRECTION ( 'NONE',  ( 0.0000000000000000000, 1.000000000000000000, 3.122502256758252277E-16 ) ) ;
#116 = DIRECTION ( 'NONE',  ( -0.0000000000000000000, 3.061515884555943146E-16, -1.000000000000000000 ) ) ;
#117 = COORDINATED_UNIVERSAL_TIME_OFFSET ( 5, 0, .BEHIND. ) ;
#118 = COORDINATED_UNIVERSAL_TIME_OFFSET ( 5, 0, .BEHIND. ) ;
#119 = DIRECTION ( 'NONE',  ( 0.0000000000000000000, 1.000000000000000000, 3.035387369471212913E-16 ) ) ;
#120 = CARTESIAN_POINT ( 'NONE',  ( 0.0000000000000000000, -3.048334686765643781E-19, 0.04239569455188885172 ) ) ;
#121 = AXIS2_PLACEMENT_3D ( 'NONE', #299, #300, #175 ) ;
#122 = DIRECTION ( 'NONE',  ( -0.0000000000000000000, 3.061515884555943146E-16, -1.000000000000000000 ) ) ;
#123 = FACE_OUTER_BOUND ( 'NONE', #36, .T. ) ;
#124 = ORIENTED_EDGE ( 'NONE', *, *, #154, .T. ) ;
#125 = DIRECTION ( 'NONE',  ( 0.0000000000000000000, -3.061515884555943639E-16, 1.000000000000000000 ) ) ;
#126 = PERSON_AND_ORGANIZATION ( #72, #88 ) ;
#127 = APPROVAL_STATUS ( 'not_yet_approved' ) ;
#128 = ORIENTED_EDGE ( 'NONE', *, *, #21, .T. ) ;
#129 = PERSON_AND_ORGANIZATION_ROLE ( 'creator' ) ;
#130 = EDGE_CURVE ( 'NONE', #246, #158, #107, .T. ) ;
#131 = APPROVAL_DATE_TIME ( #43, #219 ) ;
#132 = CIRCLE ( 'NONE', #160, 1.269999999999999574 ) ;
#133 = CC_DESIGN_PERSON_AND_ORGANIZATION_ASSIGNMENT ( #126, #176, ( #32 ) ) ;
#134 = CONICAL_SURFACE ( 'NONE', #301, 1.269999999999999574, 0.7267220470707034252 ) ;
#135 = ADVANCED_FACE ( 'NONE', ( #111 ), #172, .T. ) ;
#136 = DIRECTION ( 'NONE',  ( -0.0000000000000000000, 3.061515884555943146E-16, -1.000000000000000000 ) ) ;
#137 = CC_DESIGN_PERSON_AND_ORGANIZATION_ASSIGNMENT ( #177, #129, ( #54 ) ) ;
#138 = CONICAL_SURFACE ( 'NONE', #265, 1.269999999999999574, 0.7267220470707034252 ) ;
#139 = CARTESIAN_POINT ( 'NONE',  ( 1.530808498934191571E-16, 1.250000000000000222, -0.1369999999999998164 ) ) ;
#140 = ORIENTED_EDGE ( 'NONE', *, *, #154, .F. ) ;
#141 = ADVANCED_FACE ( 'NONE', ( #53 ), #235, .T. ) ;
#142 = DIRECTION ( 'NONE',  ( -0.0000000000000000000, 3.061515884555943146E-16, -1.000000000000000000 ) ) ;
#143 = PERSON_AND_ORGANIZATION ( #72, #88 ) ;
#144 = EDGE_LOOP ( 'NONE', ( #44, #173, #112, #90 ) ) ;
#145 = AXIS2_PLACEMENT_3D ( 'NONE', #77, #150, #35 ) ;
#146 = DIRECTION ( 'NONE',  ( -0.0000000000000000000, 3.061515884555943146E-16, -1.000000000000000000 ) ) ;
#147 = FACE_OUTER_BOUND ( 'NONE', #198, .T. ) ;
#148 = DIRECTION ( 'NONE',  ( -0.0000000000000000000, 3.061515884556132472E-16, -1.000000000000000000 ) ) ;
#149 = EDGE_CURVE ( 'NONE', #246, #82, #6, .T. ) ;
#150 = DIRECTION ( 'NONE',  ( -0.0000000000000000000, 3.061515884556132472E-16, -1.000000000000000000 ) ) ;
#151 = CIRCLE ( 'NONE', #121, 1.269999999999999574 ) ;
#152 = ORIENTED_EDGE ( 'NONE', *, *, #15, .T. ) ;
#153 = APPROVAL ( #108, 'UNSPECIFIED' ) ;
#154 = EDGE_CURVE ( 'NONE', #209, #246, #179, .T. ) ;
#155 = APPLICATION_CONTEXT ( 'configuration controlled 3d designs of mechanical parts and assemblies' ) ;
#156 = CALENDAR_DATE ( 2019, 16, 7 ) ;
#157 = VECTOR ( 'NONE', #162, 100.0000000000000284 ) ;
#158 = VERTEX_POINT ( 'NONE', #168 ) ;
#159 = DIRECTION ( 'NONE',  ( -0.0000000000000000000, 3.061515884555943146E-16, -1.000000000000000000 ) ) ;
#160 = AXIS2_PLACEMENT_3D ( 'NONE', #69, #233, #255 ) ;
#161 = CARTESIAN_POINT ( 'NONE',  ( 0.0000000000000000000, 5.461744338047808789E-17, -0.1370000000000002049 ) ) ;
#162 = DIRECTION ( 'NONE',  ( 8.136840023563163912E-17, -0.6644234100173492807, -0.7473563622669692208 ) ) ;
#163 = ORIENTED_EDGE ( 'NONE', *, *, #149, .T. ) ;
#164 = AXIS2_PLACEMENT_3D ( 'NONE', #20, #97, #240 ) ;
#165 = CALENDAR_DATE ( 2019, 16, 7 ) ;
#166 = CYLINDRICAL_SURFACE ( 'NONE', #286, 1.269999999999999574 ) ;
#167 = EDGE_LOOP ( 'NONE', ( #285, #223, #183, #152 ) ) ;
#168 = CARTESIAN_POINT ( 'NONE',  ( 1.555301434917138087E-16, -1.269999999999999574, 0.04239569455188846314 ) ) ;
#169 = DIRECTION ( 'NONE',  ( 0.0000000000000000000, -0.7071067811865571207, 0.7071067811865380248 ) ) ;
#170 = LOCAL_TIME ( 7, 12, 47.00000000000000000, #117 ) ;
#171 = DIRECTION ( 'NONE',  ( 0.0000000000000000000, 1.000000000000000000, 3.073328992872296860E-16 ) ) ;
#172 = CONICAL_SURFACE ( 'NONE', #251, 1.250000000000000222, 0.7853981633974613796 ) ;
#173 = ORIENTED_EDGE ( 'NONE', *, *, #130, .T. ) ;
#174 = MANIFOLD_SOLID_BREP ( '20137-001-1-solid1', #94 ) ;
#175 = DIRECTION ( 'NONE',  ( 0.0000000000000000000, -1.000000000000000000, -3.073328992872296860E-16 ) ) ;
#176 = PERSON_AND_ORGANIZATION_ROLE ( 'creator' ) ;
#177 = PERSON_AND_ORGANIZATION ( #72, #88 ) ;
#178 = ORIENTED_EDGE ( 'NONE', *, *, #100, .T. ) ;
#179 = CIRCLE ( 'NONE', #3, 10.84700000000000131 ) ;
#180 = CARTESIAN_POINT ( 'NONE',  ( 0.0000000000000000000, -1.250000000000000222, -0.1370000000000005935 ) ) ;
#181 = CARTESIAN_POINT ( 'NONE',  ( 1.543054966925664583E-16, 1.250000000000000222, -0.1369999999999998164 ) ) ;
#182 = FACE_OUTER_BOUND ( 'NONE', #167, .T. ) ;
#183 = ORIENTED_EDGE ( 'NONE', *, *, #45, .T. ) ;
#184 = EDGE_CURVE ( 'NONE', #158, #279, #270, .T. ) ;
#185 = DIRECTION ( 'NONE',  ( 0.0000000000000000000, 1.000000000000000000, 2.558825077498747197E-16 ) ) ;
#186 = CARTESIAN_POINT ( 'NONE',  ( 0.0000000000000000000, 1.269999999999999574, 0.04239569455188924030 ) ) ;
#187 = CALENDAR_DATE ( 2019, 16, 7 ) ;
#188 = LINE ( 'NONE', #50, #228 ) ;
#189 = CARTESIAN_POINT ( 'NONE',  ( 0.0000000000000000000, -1.999634200174917034E-15, 0.06471665899244749554 ) ) ;
#190 = PERSON_AND_ORGANIZATION ( #72, #88 ) ;
#191 = APPLICATION_PROTOCOL_DEFINITION ( 'international standard', 'config_control_design', 1994, #218 ) ;
#192 = ORIENTED_EDGE ( 'NONE', *, *, #85, .F. ) ;
#193 = DIRECTION ( 'NONE',  ( 0.0000000000000000000, 0.0000000000000000000, 1.000000000000000000 ) ) ;
#194 = EDGE_CURVE ( 'NONE', #209, #82, #25, .T. ) ;
#195 = CARTESIAN_POINT ( 'NONE',  ( 0.0000000000000000000, 0.0000000000000000000, 0.0000000000000000000 ) ) ;
#196 = MECHANICAL_CONTEXT ( 'NONE', #218, 'mechanical' ) ;
#197 = CIRCLE ( 'NONE', #164, 1.269999999999999574 ) ;
#198 = EDGE_LOOP ( 'NONE', ( #49, #19, #128, #87 ) ) ;
#199 = AXIS2_PLACEMENT_3D ( 'NONE', #258, #136, #115 ) ;
#200 = CC_DESIGN_PERSON_AND_ORGANIZATION_ASSIGNMENT ( #96, #65, ( #110 ) ) ;
#201 = CARTESIAN_POINT ( 'NONE',  ( 0.0000000000000000000, 1.269999999999999574, 0.04239569455188924030 ) ) ;
#202 = CARTESIAN_POINT ( 'NONE',  ( 0.0000000000000000000, 5.461744338047803242E-17, -0.1370000000000000107 ) ) ;
#203 = ORIENTED_EDGE ( 'NONE', *, *, #45, .F. ) ;
#204 = EDGE_LOOP ( 'NONE', ( #192, #229, #1, #295 ) ) ;
#205 = AXIS2_PLACEMENT_3D ( 'NONE', #202, #142, #230 ) ;
#206 = CARTESIAN_POINT ( 'NONE',  ( 0.0000000000000000000, 5.461744338047808789E-17, -0.1370000000000002049 ) ) ;
#207 = CARTESIAN_POINT ( 'NONE',  ( 0.0000000000000000000, -1.357576668325486802E-15, 0.1370000000000037854 ) ) ;
#208 = LOCAL_TIME ( 7, 12, 47.00000000000000000, #234 ) ;
#209 = VERTEX_POINT ( 'NONE', #207 ) ;
#210 = CC_DESIGN_APPROVAL ( #114, ( #32 ) ) ;
#211 = FACE_OUTER_BOUND ( 'NONE', #144, .T. ) ;
#212 = PLANE ( 'NONE',  #297 ) ;
#213 = EDGE_LOOP ( 'NONE', ( #55, #40, #98, #243 ) ) ;
#214 = DIRECTION ( 'NONE',  ( 0.0000000000000000000, 0.0000000000000000000, 1.000000000000000000 ) ) ;
#215 = CARTESIAN_POINT ( 'NONE',  ( 1.530999491962700252E-16, -1.250155957643170446, 0.06471665899244799514 ) ) ;
#216 = APPROVAL_ROLE ( '' ) ;
#217 = DATE_AND_TIME ( #4, #170 ) ;
#218 = APPLICATION_CONTEXT ( 'configuration controlled 3d designs of mechanical parts and assemblies' ) ;
#219 = APPROVAL ( #22, 'UNSPECIFIED' ) ;
#220 = CIRCLE ( 'NONE', #256, 1.250000000000000222 ) ;
#221 = EDGE_CURVE ( 'NONE', #279, #249, #197, .T. ) ;
#222 = LOCAL_TIME ( 7, 12, 47.00000000000000000, #259 ) ;
#223 = ORIENTED_EDGE ( 'NONE', *, *, #227, .T. ) ;
#224 = PERSON_AND_ORGANIZATION ( #72, #88 ) ;
#225 = CARTESIAN_POINT ( 'NONE',  ( 0.0000000000000000000, 5.461744338047803242E-17, -0.1370000000000000107 ) ) ;
#226 = CONICAL_SURFACE ( 'NONE', #232, 1.250000000000000222, 0.7853981633974613796 ) ;
#227 = EDGE_CURVE ( 'NONE', #158, #263, #269, .T. ) ;
#228 = VECTOR ( 'NONE', #159, 100.0000000000000000 ) ;
#229 = ORIENTED_EDGE ( 'NONE', *, *, #2, .F. ) ;
#230 = DIRECTION ( 'NONE',  ( 0.0000000000000000000, 1.000000000000000000, 3.073328992872296860E-16 ) ) ;
#231 = ADVANCED_FACE ( 'NONE', ( #89 ), #70, .T. ) ;
#232 = AXIS2_PLACEMENT_3D ( 'NONE', #241, #125, #101 ) ;
#233 = DIRECTION ( 'NONE',  ( 0.0000000000000000000, -3.061515884555943639E-16, 1.000000000000000000 ) ) ;
#234 = COORDINATED_UNIVERSAL_TIME_OFFSET ( 5, 0, .BEHIND. ) ;
#235 = SPHERICAL_SURFACE ( 'NONE', #34, 10.84700000000000131 ) ;
#236 = UNCERTAINTY_MEASURE_WITH_UNIT (LENGTH_MEASURE( 1.000000000000000082E-05 ), #24, 'distance_accuracy_value', 'NONE');
#237 = ADVANCED_FACE ( 'NONE', ( #277 ), #212, .T. ) ;
#238 = EDGE_CURVE ( 'NONE', #30, #279, #27, .T. ) ;
#239 = APPROVAL_PERSON_ORGANIZATION ( #252, #219, #23 ) ;
#240 = DIRECTION ( 'NONE',  ( 0.0000000000000000000, 1.000000000000000000, 3.073328992872296860E-16 ) ) ;
#241 = CARTESIAN_POINT ( 'NONE',  ( 0.0000000000000000000, 5.461744338047808789E-17, -0.1370000000000002049 ) ) ;
#242 = CARTESIAN_POINT ( 'NONE',  ( 0.0000000000000000000, -1.250000000000000222, -0.1370000000000005935 ) ) ;
#243 = ORIENTED_EDGE ( 'NONE', *, *, #238, .F. ) ;
#244 = DIRECTION ( 'NONE',  ( 1.000000000000000000, 1.224646799147353207E-16, 3.749275628560213616E-32 ) ) ;
#245 = APPROVAL_PERSON_ORGANIZATION ( #143, #153, #216 ) ;
#246 = VERTEX_POINT ( 'NONE', #215 ) ;
#247 = DATE_TIME_ROLE ( 'classification_date' ) ;
#248 =( GEOMETRIC_REPRESENTATION_CONTEXT ( 3 ) GLOBAL_UNCERTAINTY_ASSIGNED_CONTEXT ( ( #236 ) ) GLOBAL_UNIT_ASSIGNED_CONTEXT ( ( #24, #41, #61 ) ) REPRESENTATION_CONTEXT ( 'NONE', 'WORKASPACE' ) );
#249 = VERTEX_POINT ( 'NONE', #267 ) ;
#250 = EDGE_CURVE ( 'NONE', #82, #246, #273, .T. ) ;
#251 = AXIS2_PLACEMENT_3D ( 'NONE', #206, #10, #278 ) ;
#252 = PERSON_AND_ORGANIZATION ( #72, #88 ) ;
#253 = CARTESIAN_POINT ( 'NONE',  ( 1.555301434917138087E-16, -1.269999999999999574, -0.1370000000000003992 ) ) ;
#254 = ADVANCED_FACE ( 'NONE', ( #147 ), #134, .T. ) ;
#255 = DIRECTION ( 'NONE',  ( 0.0000000000000000000, 1.000000000000000000, 3.073328992872296860E-16 ) ) ;
#256 = AXIS2_PLACEMENT_3D ( 'NONE', #161, #116, #31 ) ;
#257 = EDGE_LOOP ( 'NONE', ( #68, #178 ) ) ;
#258 = CARTESIAN_POINT ( 'NONE',  ( 0.0000000000000000000, 5.461744338047808789E-17, -0.1370000000000002049 ) ) ;
#259 = COORDINATED_UNIVERSAL_TIME_OFFSET ( 5, 0, .BEHIND. ) ;
#260 = VECTOR ( 'NONE', #169, 100.0000000000000000 ) ;
#261 = CARTESIAN_POINT ( 'NONE',  ( 0.0000000000000000000, 5.461744338047808789E-17, -0.1370000000000002049 ) ) ;
#262 = DIRECTION ( 'NONE',  ( 0.0000000000000000000, 1.000000000000000000, 3.035387369471212913E-16 ) ) ;
#263 = VERTEX_POINT ( 'NONE', #186 ) ;
#264 = ORIENTED_EDGE ( 'NONE', *, *, #184, .T. ) ;
#265 = AXIS2_PLACEMENT_3D ( 'NONE', #120, #148, #171 ) ;
#266 = DIRECTION ( 'NONE',  ( 1.000000000000000000, 0.0000000000000000000, -0.0000000000000000000 ) ) ;
#267 = CARTESIAN_POINT ( 'NONE',  ( 0.0000000000000000000, 1.269999999999999574, -0.1170000000000009782 ) ) ;
#268 = DATE_AND_TIME ( #283, #222 ) ;
#269 = CIRCLE ( 'NONE', #145, 1.269999999999999574 ) ;
#270 = LINE ( 'NONE', #253, #294 ) ;
#271 = AXIS2_PLACEMENT_3D ( 'NONE', #288, #81, #119 ) ;
#272 = SHAPE_DEFINITION_REPRESENTATION ( #76, #63 ) ;
#273 = CIRCLE ( 'NONE', #93, 1.250155957643169558 ) ;
#274 = AXIS2_PLACEMENT_3D ( 'NONE', #195, #193, #106 ) ;
#275 = DIRECTION ( 'NONE',  ( 0.0000000000000000000, 1.000000000000000000, 2.558825077498747197E-16 ) ) ;
#276 = ADVANCED_FACE ( 'NONE', ( #13 ), #226, .T. ) ;
#277 = FACE_OUTER_BOUND ( 'NONE', #257, .T. ) ;
#278 = DIRECTION ( 'NONE',  ( 0.0000000000000000000, -1.000000000000000000, -3.122502256758252277E-16 ) ) ;
#279 = VERTEX_POINT ( 'NONE', #99 ) ;
#280 = ADVANCED_FACE ( 'NONE', ( #211 ), #138, .T. ) ;
#281 = CC_DESIGN_PERSON_AND_ORGANIZATION_ASSIGNMENT ( #224, #84, ( #56 ) ) ;
#282 = CARTESIAN_POINT ( 'NONE',  ( 1.555301434917138087E-16, -1.269999999999999574, 0.04239569455188846314 ) ) ;
#283 = CALENDAR_DATE ( 2019, 16, 7 ) ;
#284 = EDGE_CURVE ( 'NONE', #263, #158, #151, .T. ) ;
#285 = ORIENTED_EDGE ( 'NONE', *, *, #184, .F. ) ;
#286 = AXIS2_PLACEMENT_3D ( 'NONE', #225, #92, #73 ) ;
#287 = LOCAL_TIME ( 7, 12, 47.00000000000000000, #102 ) ;
#288 = CARTESIAN_POINT ( 'NONE',  ( 0.0000000000000000000, -1.999634200174917034E-15, 0.06471665899244749554 ) ) ;
#289 = AXIS2_PLACEMENT_3D ( 'NONE', #17, #266, #185 ) ;
#290 = EDGE_LOOP ( 'NONE', ( #140, #80, #12 ) ) ;
#291 = DIRECTION ( 'NONE',  ( 0.0000000000000000000, -3.061515884556132472E-16, 1.000000000000000000 ) ) ;
#292 = AXIS2_PLACEMENT_3D ( 'NONE', #296, #16, #214 ) ;
#293 = APPROVAL_DATE_TIME ( #268, #114 ) ;
#294 = VECTOR ( 'NONE', #122, 100.0000000000000000 ) ;
#295 = ORIENTED_EDGE ( 'NONE', *, *, #15, .F. ) ;
#296 = CARTESIAN_POINT ( 'NONE',  ( 0.0000000000000000000, 1.299062420134777881E-15, -10.70999999999999730 ) ) ;
#297 = AXIS2_PLACEMENT_3D ( 'NONE', #261, #146, #78 ) ;
#298 = ORIENTED_EDGE ( 'NONE', *, *, #194, .F. ) ;
#299 = CARTESIAN_POINT ( 'NONE',  ( 0.0000000000000000000, -3.048334686773540094E-19, 0.04239569455188885172 ) ) ;
#300 = DIRECTION ( 'NONE',  ( -0.0000000000000000000, 3.061515884556132472E-16, -1.000000000000000000 ) ) ;
#301 = AXIS2_PLACEMENT_3D ( 'NONE', #58, #79, #37 ) ;
ENDSEC;
END-ISO-10303-21;
