ISO-10303-21;
HEADER;
FILE_DESCRIPTION (( 'STEP AP203' ),
    '1' );
FILE_NAME ('Web Model 37128MX_37137.step',
    '2018-05-08T16:13:00',
    ( '' ),
    ( '' ),
    'SwSTEP 2.0',
    'SolidWorks 2016',
    '' );
FILE_SCHEMA (( 'CONFIG_CONTROL_DESIGN' ));
ENDSEC;

DATA;
#1 = CC_DESIGN_APPROVAL ( #230, ( #105 ) ) ;
#2 = CARTESIAN_POINT ( 'NONE',  ( 0.0000000000000000000, 0.0000000000000000000, 3.000000000000000000 ) ) ;
#3 = DIRECTION ( 'NONE',  ( 0.0000000000000000000, 0.0000000000000000000, 1.000000000000000000 ) ) ;
#4 = DIRECTION ( 'NONE',  ( 0.0000000000000000000, -0.0000000000000000000, 1.000000000000000000 ) ) ;
#5 = PRODUCT ( 'Web Model 37128MX_37137', 'Web Model 37128MX_37137', '', ( #147 ) ) ;
#6 = DATE_AND_TIME ( #55, #15 ) ;
#7 = LINE ( 'NONE', #28, #194 ) ;
#8 = SECURITY_CLASSIFICATION_LEVEL ( 'unclassified' ) ;
#9 = ORIENTED_EDGE ( 'NONE', *, *, #218, .F. ) ;
#10 = APPROVAL_PERSON_ORGANIZATION ( #154, #230, #51 ) ;
#11 = ORIENTED_EDGE ( 'NONE', *, *, #47, .F. ) ;
#12 = DESIGN_CONTEXT ( 'detailed design', #227, 'design' ) ;
#13 = AXIS2_PLACEMENT_3D ( 'NONE', #32, #173, #68 ) ;
#14 = APPROVAL_DATE_TIME ( #109, #230 ) ;
#15 = LOCAL_TIME ( 12, 13, 0.0000000000000000000, #163 ) ;
#16 = VECTOR ( 'NONE', #222, 1000.000000000000000 ) ;
#17 = PRODUCT_DEFINITION ( 'UNKNOWN', '', #105, #12 ) ;
#18 = FACE_OUTER_BOUND ( 'NONE', #212, .T. ) ;
#19 = ORIENTED_EDGE ( 'NONE', *, *, #211, .F. ) ;
#20 = EDGE_CURVE ( 'NONE', #177, #97, #114, .T. ) ;
#21 = PLANE ( 'NONE',  #102 ) ;
#22 = LOCAL_TIME ( 12, 13, 0.0000000000000000000, #232 ) ;
#23 = ORIENTED_EDGE ( 'NONE', *, *, #172, .T. ) ;
#24 = DIRECTION ( 'NONE',  ( -0.0000000000000000000, -0.0000000000000000000, -1.000000000000000000 ) ) ;
#25 = COORDINATED_UNIVERSAL_TIME_OFFSET ( 5, 0, .BEHIND. ) ;
#26 = ORIENTED_EDGE ( 'NONE', *, *, #40, .T. ) ;
#27 = CARTESIAN_POINT ( 'NONE',  ( 12.50000000000000500, 12.49999999999999800, -3.000000000000000000 ) ) ;
#28 = CARTESIAN_POINT ( 'NONE',  ( -12.49999999999999500, 12.49999999999999500, 3.000000000000000000 ) ) ;
#29 = ADVANCED_FACE ( 'NONE', ( #228 ), #21, .F. ) ;
#30 = CC_DESIGN_DATE_AND_TIME_ASSIGNMENT ( #6, #207, ( #17 ) ) ;
#31 = PERSON_AND_ORGANIZATION ( #200, #73 ) ;
#32 = CARTESIAN_POINT ( 'NONE',  ( 0.0000000000000000000, 0.0000000000000000000, 0.0000000000000000000 ) ) ;
#33 = DIRECTION ( 'NONE',  ( 1.000000000000000000, 0.0000000000000000000, -0.0000000000000000000 ) ) ;
#34 = PRODUCT_RELATED_PRODUCT_CATEGORY ( 'detail', '', ( #5 ) ) ;
#35 = EDGE_CURVE ( 'NONE', #177, #36, #69, .T. ) ;
#36 = VERTEX_POINT ( 'NONE', #219 ) ;
#37 = MANIFOLD_SOLID_BREP ( 'Boss-Extrude1', #156 ) ;
#38 = SECURITY_CLASSIFICATION ( '', '', #8 ) ;
#39 = LINE ( 'NONE', #27, #87 ) ;
#40 = EDGE_CURVE ( 'NONE', #97, #85, #126, .T. ) ;
#41 = ADVANCED_FACE ( 'NONE', ( #48 ), #139, .F. ) ;
#42 = DIRECTION ( 'NONE',  ( 1.000000000000000000, 1.387778780781445700E-016, -0.0000000000000000000 ) ) ;
#43 = ADVANCED_FACE ( 'NONE', ( #176 ), #101, .F. ) ;
#44 = ORIENTED_EDGE ( 'NONE', *, *, #218, .T. ) ;
#45 = CARTESIAN_POINT ( 'NONE',  ( 12.50000000000000500, 12.49999999999999800, 3.000000000000000000 ) ) ;
#46 = LINE ( 'NONE', #82, #52 ) ;
#47 = EDGE_CURVE ( 'NONE', #85, #133, #39, .T. ) ;
#48 = FACE_OUTER_BOUND ( 'NONE', #182, .T. ) ;
#49 =( GEOMETRIC_REPRESENTATION_CONTEXT ( 3 ) GLOBAL_UNCERTAINTY_ASSIGNED_CONTEXT ( ( #178 ) ) GLOBAL_UNIT_ASSIGNED_CONTEXT ( ( #150, #149, #193 ) ) REPRESENTATION_CONTEXT ( 'NONE', 'WORKASPACE' ) );
#50 = ORIENTED_EDGE ( 'NONE', *, *, #172, .F. ) ;
#51 = APPROVAL_ROLE ( '' ) ;
#52 = VECTOR ( 'NONE', #203, 1000.000000000000000 ) ;
#53 = FACE_OUTER_BOUND ( 'NONE', #62, .T. ) ;
#54 = EDGE_CURVE ( 'NONE', #133, #190, #217, .T. ) ;
#55 = CALENDAR_DATE ( 2018, 8, 5 ) ;
#56 = VECTOR ( 'NONE', #61, 1000.000000000000000 ) ;
#57 = DIRECTION ( 'NONE',  ( -1.000000000000000000, 0.0000000000000000000, 0.0000000000000000000 ) ) ;
#58 = CARTESIAN_POINT ( 'NONE',  ( -12.49999999999999500, -12.50000000000000500, 3.000000000000000000 ) ) ;
#59 = CARTESIAN_POINT ( 'NONE',  ( -12.49999999999999500, -12.50000000000000500, -3.000000000000000000 ) ) ;
#60 = LOCAL_TIME ( 12, 13, 0.0000000000000000000, #89 ) ;
#61 = DIRECTION ( 'NONE',  ( -1.000000000000000000, -1.387778780781445700E-016, 0.0000000000000000000 ) ) ;
#62 = EDGE_LOOP ( 'NONE', ( #168, #11, #233, #19 ) ) ;
#63 = DIRECTION ( 'NONE',  ( -1.387778780781445400E-016, 1.000000000000000000, 0.0000000000000000000 ) ) ;
#64 = AXIS2_PLACEMENT_3D ( 'NONE', #2, #4, #33 ) ;
#65 = APPROVAL_STATUS ( 'not_yet_approved' ) ;
#66 = VECTOR ( 'NONE', #234, 1000.000000000000000 ) ;
#67 = APPLICATION_PROTOCOL_DEFINITION ( 'international standard', 'config_control_design', 1994, #226 ) ;
#68 = DIRECTION ( 'NONE',  ( 1.000000000000000000, 0.0000000000000000000, 0.0000000000000000000 ) ) ;
#69 = LINE ( 'NONE', #94, #159 ) ;
#70 = APPROVAL ( #171, 'UNSPECIFIED' ) ;
#71 = ORIENTED_EDGE ( 'NONE', *, *, #47, .T. ) ;
#72 = EDGE_CURVE ( 'NONE', #121, #177, #196, .T. ) ;
#73 = ORGANIZATION ( 'UNSPECIFIED', 'UNSPECIFIED', '' ) ;
#74 = APPROVAL ( #65, 'UNSPECIFIED' ) ;
#75 = ORIENTED_EDGE ( 'NONE', *, *, #20, .F. ) ;
#76 = CARTESIAN_POINT ( 'NONE',  ( 12.50000000000000500, -12.50000000000000200, 3.000000000000000000 ) ) ;
#77 = APPROVAL_DATE_TIME ( #216, #70 ) ;
#78 = EDGE_LOOP ( 'NONE', ( #92, #50, #9, #120 ) ) ;
#79 = DIRECTION ( 'NONE',  ( 0.0000000000000000000, 0.0000000000000000000, -1.000000000000000000 ) ) ;
#80 = PLANE ( 'NONE',  #64 ) ;
#81 = PLANE ( 'NONE',  #153 ) ;
#82 = CARTESIAN_POINT ( 'NONE',  ( -12.49999999999999500, -12.50000000000000500, 3.000000000000000000 ) ) ;
#83 = CARTESIAN_POINT ( 'NONE',  ( 12.50000000000000500, -12.50000000000000200, -3.000000000000000000 ) ) ;
#84 = CALENDAR_DATE ( 2018, 8, 5 ) ;
#85 = VERTEX_POINT ( 'NONE', #186 ) ;
#86 = CALENDAR_DATE ( 2018, 8, 5 ) ;
#87 = VECTOR ( 'NONE', #145, 1000.000000000000000 ) ;
#88 = APPROVAL_ROLE ( '' ) ;
#89 = COORDINATED_UNIVERSAL_TIME_OFFSET ( 5, 0, .BEHIND. ) ;
#90 = COORDINATED_UNIVERSAL_TIME_OFFSET ( 5, 0, .BEHIND. ) ;
#91 = ORIENTED_EDGE ( 'NONE', *, *, #157, .F. ) ;
#92 = ORIENTED_EDGE ( 'NONE', *, *, #54, .T. ) ;
#93 = SHAPE_DEFINITION_REPRESENTATION ( #213, #152 ) ;
#94 = CARTESIAN_POINT ( 'NONE',  ( 12.50000000000000500, -12.50000000000000200, 3.000000000000000000 ) ) ;
#95 = CARTESIAN_POINT ( 'NONE',  ( -12.49999999999999500, 12.49999999999999500, -3.000000000000000000 ) ) ;
#96 = VECTOR ( 'NONE', #115, 1000.000000000000000 ) ;
#97 = VERTEX_POINT ( 'NONE', #83 ) ;
#98 = ADVANCED_FACE ( 'NONE', ( #53 ), #81, .F. ) ;
#99 = DIRECTION ( 'NONE',  ( 1.000000000000000000, 0.0000000000000000000, -0.0000000000000000000 ) ) ;
#100 = DIRECTION ( 'NONE',  ( 1.000000000000000000, 1.387778780781445700E-016, -0.0000000000000000000 ) ) ;
#101 = PLANE ( 'NONE',  #214 ) ;
#102 = AXIS2_PLACEMENT_3D ( 'NONE', #124, #141, #79 ) ;
#103 = ORIENTED_EDGE ( 'NONE', *, *, #72, .T. ) ;
#104 = PERSON_AND_ORGANIZATION_ROLE ( 'design_supplier' ) ;
#105 = PRODUCT_DEFINITION_FORMATION_WITH_SPECIFIED_SOURCE ( 'ANY', '', #5, .NOT_KNOWN. ) ;
#106 = PERSON_AND_ORGANIZATION ( #200, #73 ) ;
#107 = LINE ( 'NONE', #197, #235 ) ;
#108 = PERSON_AND_ORGANIZATION ( #200, #73 ) ;
#109 = DATE_AND_TIME ( #162, #22 ) ;
#110 = APPROVAL_PERSON_ORGANIZATION ( #106, #70, #88 ) ;
#111 = ORIENTED_EDGE ( 'NONE', *, *, #35, .F. ) ;
#112 = DIRECTION ( 'NONE',  ( -0.0000000000000000000, -0.0000000000000000000, -1.000000000000000000 ) ) ;
#113 = DIRECTION ( 'NONE',  ( 1.387778780781445400E-016, -1.000000000000000000, 0.0000000000000000000 ) ) ;
#114 = LINE ( 'NONE', #76, #210 ) ;
#115 = DIRECTION ( 'NONE',  ( -0.0000000000000000000, -0.0000000000000000000, -1.000000000000000000 ) ) ;
#116 = EDGE_CURVE ( 'NONE', #36, #140, #181, .T. ) ;
#117 = PERSON_AND_ORGANIZATION_ROLE ( 'design_owner' ) ;
#118 = PERSON_AND_ORGANIZATION_ROLE ( 'creator' ) ;
#119 = ORIENTED_EDGE ( 'NONE', *, *, #116, .F. ) ;
#120 = ORIENTED_EDGE ( 'NONE', *, *, #157, .T. ) ;
#121 = VERTEX_POINT ( 'NONE', #167 ) ;
#122 = PERSON_AND_ORGANIZATION ( #200, #73 ) ;
#123 = ORIENTED_EDGE ( 'NONE', *, *, #20, .T. ) ;
#124 = CARTESIAN_POINT ( 'NONE',  ( -12.49999999999999500, -12.50000000000000500, 3.000000000000000000 ) ) ;
#125 = CC_DESIGN_PERSON_AND_ORGANIZATION_ASSIGNMENT ( #225, #208, ( #105 ) ) ;
#126 = LINE ( 'NONE', #183, #66 ) ;
#127 = CARTESIAN_POINT ( 'NONE',  ( 12.50000000000000500, 12.49999999999999800, 3.000000000000000000 ) ) ;
#128 = CC_DESIGN_APPROVAL ( #74, ( #38 ) ) ;
#129 = CARTESIAN_POINT ( 'NONE',  ( 12.50000000000000500, -12.50000000000000200, 3.000000000000000000 ) ) ;
#130 = PERSON_AND_ORGANIZATION ( #200, #73 ) ;
#131 = DIRECTION ( 'NONE',  ( -1.000000000000000000, -1.387778780781445400E-016, 0.0000000000000000000 ) ) ;
#132 = APPROVAL_STATUS ( 'not_yet_approved' ) ;
#133 = VERTEX_POINT ( 'NONE', #95 ) ;
#134 = AXIS2_PLACEMENT_3D ( 'NONE', #184, #57, #3 ) ;
#135 = APPLICATION_PROTOCOL_DEFINITION ( 'international standard', 'config_control_design', 1994, #227 ) ;
#136 = LOCAL_TIME ( 12, 13, 0.0000000000000000000, #25 ) ;
#137 = AXIS2_PLACEMENT_3D ( 'NONE', #127, #113, #236 ) ;
#138 = LINE ( 'NONE', #58, #96 ) ;
#139 = PLANE ( 'NONE',  #134 ) ;
#140 = VERTEX_POINT ( 'NONE', #204 ) ;
#141 = DIRECTION ( 'NONE',  ( 1.000000000000000000, 0.0000000000000000000, 0.0000000000000000000 ) ) ;
#142 = LOCAL_TIME ( 12, 13, 0.0000000000000000000, #90 ) ;
#143 = EDGE_CURVE ( 'NONE', #36, #85, #179, .T. ) ;
#144 = ORIENTED_EDGE ( 'NONE', *, *, #72, .F. ) ;
#145 = DIRECTION ( 'NONE',  ( -1.000000000000000000, -1.387778780781445700E-016, 0.0000000000000000000 ) ) ;
#146 = CARTESIAN_POINT ( 'NONE',  ( 12.50000000000000500, -12.50000000000000200, 3.000000000000000000 ) ) ;
#147 = MECHANICAL_CONTEXT ( 'NONE', #226, 'mechanical' ) ;
#148 = VECTOR ( 'NONE', #42, 1000.000000000000000 ) ;
#149 =( NAMED_UNIT ( * ) PLANE_ANGLE_UNIT ( ) SI_UNIT ( $, .RADIAN. ) );
#150 =( LENGTH_UNIT ( ) NAMED_UNIT ( * ) SI_UNIT ( .MILLI., .METRE. ) );
#151 = ORIENTED_EDGE ( 'NONE', *, *, #211, .T. ) ;
#152 = ADVANCED_BREP_SHAPE_REPRESENTATION ( 'Web Model 37128MX_37137', ( #37, #13 ), #49 ) ;
#153 = AXIS2_PLACEMENT_3D ( 'NONE', #199, #165, #99 ) ;
#154 = PERSON_AND_ORGANIZATION ( #200, #73 ) ;
#155 = EDGE_LOOP ( 'NONE', ( #71, #91, #119, #229 ) ) ;
#156 = CLOSED_SHELL ( 'NONE', ( #29, #43, #41, #220, #237, #98 ) ) ;
#157 = EDGE_CURVE ( 'NONE', #140, #133, #7, .T. ) ;
#158 = APPROVAL_DATE_TIME ( #231, #74 ) ;
#159 = VECTOR ( 'NONE', #195, 1000.000000000000000 ) ;
#160 = DIRECTION ( 'NONE',  ( -0.0000000000000000000, -0.0000000000000000000, -1.000000000000000000 ) ) ;
#161 = CC_DESIGN_PERSON_AND_ORGANIZATION_ASSIGNMENT ( #187, #104, ( #105 ) ) ;
#162 = CALENDAR_DATE ( 2018, 8, 5 ) ;
#163 = COORDINATED_UNIVERSAL_TIME_OFFSET ( 5, 0, .BEHIND. ) ;
#164 = CC_DESIGN_PERSON_AND_ORGANIZATION_ASSIGNMENT ( #130, #224, ( #38 ) ) ;
#165 = DIRECTION ( 'NONE',  ( 0.0000000000000000000, -0.0000000000000000000, 1.000000000000000000 ) ) ;
#166 = APPROVAL_PERSON_ORGANIZATION ( #122, #74, #174 ) ;
#167 = CARTESIAN_POINT ( 'NONE',  ( -12.49999999999999500, -12.50000000000000500, 3.000000000000000000 ) ) ;
#168 = ORIENTED_EDGE ( 'NONE', *, *, #54, .F. ) ;
#169 = CARTESIAN_POINT ( 'NONE',  ( -12.49999999999999500, -12.50000000000000500, -3.000000000000000000 ) ) ;
#170 = PLANE ( 'NONE',  #137 ) ;
#171 = APPROVAL_STATUS ( 'not_yet_approved' ) ;
#172 = EDGE_CURVE ( 'NONE', #121, #190, #138, .T. ) ;
#173 = DIRECTION ( 'NONE',  ( 0.0000000000000000000, 0.0000000000000000000, 1.000000000000000000 ) ) ;
#174 = APPROVAL_ROLE ( '' ) ;
#175 = DATE_AND_TIME ( #86, #60 ) ;
#176 = FACE_OUTER_BOUND ( 'NONE', #202, .T. ) ;
#177 = VERTEX_POINT ( 'NONE', #129 ) ;
#178 = UNCERTAINTY_MEASURE_WITH_UNIT (LENGTH_MEASURE( 1.000000000000000100E-005 ), #150, 'distance_accuracy_value', 'NONE');
#179 = LINE ( 'NONE', #45, #192 ) ;
#180 = CC_DESIGN_SECURITY_CLASSIFICATION ( #38, ( #105 ) ) ;
#181 = LINE ( 'NONE', #223, #56 ) ;
#182 = EDGE_LOOP ( 'NONE', ( #26, #206, #111, #123 ) ) ;
#183 = CARTESIAN_POINT ( 'NONE',  ( 12.50000000000000500, -12.50000000000000200, -3.000000000000000000 ) ) ;
#184 = CARTESIAN_POINT ( 'NONE',  ( 12.50000000000000500, -12.50000000000000200, 3.000000000000000000 ) ) ;
#185 = FACE_OUTER_BOUND ( 'NONE', #155, .T. ) ;
#186 = CARTESIAN_POINT ( 'NONE',  ( 12.50000000000000500, 12.49999999999999800, -3.000000000000000000 ) ) ;
#187 = PERSON_AND_ORGANIZATION ( #200, #73 ) ;
#188 = CC_DESIGN_PERSON_AND_ORGANIZATION_ASSIGNMENT ( #108, #117, ( #5 ) ) ;
#189 = CARTESIAN_POINT ( 'NONE',  ( 12.50000000000000500, -12.50000000000000200, 3.000000000000000000 ) ) ;
#190 = VERTEX_POINT ( 'NONE', #169 ) ;
#191 = DATE_TIME_ROLE ( 'classification_date' ) ;
#192 = VECTOR ( 'NONE', #112, 1000.000000000000000 ) ;
#193 =( NAMED_UNIT ( * ) SI_UNIT ( $, .STERADIAN. ) SOLID_ANGLE_UNIT ( ) );
#194 = VECTOR ( 'NONE', #24, 1000.000000000000000 ) ;
#195 = DIRECTION ( 'NONE',  ( 0.0000000000000000000, 1.000000000000000000, 0.0000000000000000000 ) ) ;
#196 = LINE ( 'NONE', #189, #148 ) ;
#197 = CARTESIAN_POINT ( 'NONE',  ( 12.50000000000000500, -12.50000000000000200, -3.000000000000000000 ) ) ;
#198 = CC_DESIGN_APPROVAL ( #70, ( #17 ) ) ;
#199 = CARTESIAN_POINT ( 'NONE',  ( 0.0000000000000000000, 0.0000000000000000000, -3.000000000000000000 ) ) ;
#200 = PERSON ( 'UNSPECIFIED', 'UNSPECIFIED', 'UNSPECIFIED', ('UNSPECIFIED'), ('UNSPECIFIED'), ('UNSPECIFIED') ) ;
#201 = CC_DESIGN_PERSON_AND_ORGANIZATION_ASSIGNMENT ( #31, #118, ( #17 ) ) ;
#202 = EDGE_LOOP ( 'NONE', ( #151, #75, #144, #23 ) ) ;
#203 = DIRECTION ( 'NONE',  ( -0.0000000000000000000, -1.000000000000000000, -0.0000000000000000000 ) ) ;
#204 = CARTESIAN_POINT ( 'NONE',  ( -12.49999999999999500, 12.49999999999999500, 3.000000000000000000 ) ) ;
#205 = CC_DESIGN_DATE_AND_TIME_ASSIGNMENT ( #175, #191, ( #38 ) ) ;
#206 = ORIENTED_EDGE ( 'NONE', *, *, #143, .F. ) ;
#207 = DATE_TIME_ROLE ( 'creation_date' ) ;
#208 = PERSON_AND_ORGANIZATION_ROLE ( 'creator' ) ;
#209 = CALENDAR_DATE ( 2018, 8, 5 ) ;
#210 = VECTOR ( 'NONE', #160, 1000.000000000000000 ) ;
#211 = EDGE_CURVE ( 'NONE', #190, #97, #107, .T. ) ;
#212 = EDGE_LOOP ( 'NONE', ( #44, #103, #215, #221 ) ) ;
#213 = PRODUCT_DEFINITION_SHAPE ( 'NONE', 'NONE',  #17 ) ;
#214 = AXIS2_PLACEMENT_3D ( 'NONE', #146, #63, #131 ) ;
#215 = ORIENTED_EDGE ( 'NONE', *, *, #35, .T. ) ;
#216 = DATE_AND_TIME ( #84, #142 ) ;
#217 = LINE ( 'NONE', #59, #16 ) ;
#218 = EDGE_CURVE ( 'NONE', #140, #121, #46, .T. ) ;
#219 = CARTESIAN_POINT ( 'NONE',  ( 12.50000000000000500, 12.49999999999999800, 3.000000000000000000 ) ) ;
#220 = ADVANCED_FACE ( 'NONE', ( #185 ), #170, .F. ) ;
#221 = ORIENTED_EDGE ( 'NONE', *, *, #116, .T. ) ;
#222 = DIRECTION ( 'NONE',  ( -0.0000000000000000000, -1.000000000000000000, -0.0000000000000000000 ) ) ;
#223 = CARTESIAN_POINT ( 'NONE',  ( 12.50000000000000500, 12.49999999999999800, 3.000000000000000000 ) ) ;
#224 = PERSON_AND_ORGANIZATION_ROLE ( 'classification_officer' ) ;
#225 = PERSON_AND_ORGANIZATION ( #200, #73 ) ;
#226 = APPLICATION_CONTEXT ( 'configuration controlled 3d designs of mechanical parts and assemblies' ) ;
#227 = APPLICATION_CONTEXT ( 'configuration controlled 3d designs of mechanical parts and assemblies' ) ;
#228 = FACE_OUTER_BOUND ( 'NONE', #78, .T. ) ;
#229 = ORIENTED_EDGE ( 'NONE', *, *, #143, .T. ) ;
#230 = APPROVAL ( #132, 'UNSPECIFIED' ) ;
#231 = DATE_AND_TIME ( #209, #136 ) ;
#232 = COORDINATED_UNIVERSAL_TIME_OFFSET ( 5, 0, .BEHIND. ) ;
#233 = ORIENTED_EDGE ( 'NONE', *, *, #40, .F. ) ;
#234 = DIRECTION ( 'NONE',  ( 0.0000000000000000000, 1.000000000000000000, 0.0000000000000000000 ) ) ;
#235 = VECTOR ( 'NONE', #100, 1000.000000000000000 ) ;
#236 = DIRECTION ( 'NONE',  ( 1.000000000000000000, 1.387778780781445400E-016, 0.0000000000000000000 ) ) ;
#237 = ADVANCED_FACE ( 'NONE', ( #18 ), #80, .T. ) ;
ENDSEC;
END-ISO-10303-21;
