ISO-10303-21;
HEADER;
FILE_DESCRIPTION (( 'STEP AP203' ),
    '1' );
FILE_NAME ('Web Model 68157_20634.step',
    '2022-03-15T19:17:19',
    ( '' ),
    ( '' ),
    'SwSTEP 2.0',
    'SolidWorks 2021',
    '' );
FILE_SCHEMA (( 'CONFIG_CONTROL_DESIGN' ));
ENDSEC;

DATA;
#1 = PERSON_AND_ORGANIZATION ( #61, #85 ) ;
#2 = AXIS2_PLACEMENT_3D ( 'NONE', #106, #171, #147 ) ;
#3 = EDGE_LOOP ( 'NONE', ( #157, #72, #83, #156 ) ) ;
#4 = LINE ( 'NONE', #124, #146 ) ;
#5 = EDGE_CURVE ( 'NONE', #69, #84, #4, .T. ) ;
#6 = APPROVAL_PERSON_ORGANIZATION ( #1, #170, #109 ) ;
#7 = CARTESIAN_POINT ( 'NONE',  ( -6.349999999999999645, 0.000000000000000000, 0.000000000000000000 ) ) ;
#8 = PLANE ( 'NONE',  #78 ) ;
#9 = APPLICATION_PROTOCOL_DEFINITION ( 'international standard', 'config_control_design', 1994, #128 ) ;
#10 = FACE_OUTER_BOUND ( 'NONE', #154, .T. ) ;
#11 = CLOSED_SHELL ( 'NONE', ( #43, #12, #113, #49 ) ) ;
#12 = ADVANCED_FACE ( 'NONE', ( #46 ), #158, .T. ) ;
#13 = PERSON_AND_ORGANIZATION ( #61, #85 ) ;
#14 = PRODUCT_DEFINITION_FORMATION_WITH_SPECIFIED_SOURCE ( 'ANY', '', #163, .NOT_KNOWN. ) ;
#15 = APPROVAL_ROLE ( '' ) ;
#16 = DATE_AND_TIME ( #42, #65 ) ;
#17 = COORDINATED_UNIVERSAL_TIME_OFFSET ( 5, 0, .BEHIND. ) ;
#18 = VERTEX_POINT ( 'NONE', #71 ) ;
#19 = MANIFOLD_SOLID_BREP ( 'Boss-Extrude1', #11 ) ;
#20 = CC_DESIGN_PERSON_AND_ORGANIZATION_ASSIGNMENT ( #50, #91, ( #163 ) ) ;
#21 = EDGE_LOOP ( 'NONE', ( #100, #68, #114, #99 ) ) ;
#22 = DIRECTION ( 'NONE',  ( -0.000000000000000000, -0.000000000000000000, -1.000000000000000000 ) ) ;
#23 = CARTESIAN_POINT ( 'NONE',  ( 0.000000000000000000, 0.000000000000000000, 0.000000000000000000 ) ) ;
#24 = CARTESIAN_POINT ( 'NONE',  ( 0.000000000000000000, 0.000000000000000000, 0.000000000000000000 ) ) ;
#25 = FACE_OUTER_BOUND ( 'NONE', #169, .T. ) ;
#26 = CC_DESIGN_DATE_AND_TIME_ASSIGNMENT ( #16, #108, ( #81 ) ) ;
#27 = DATE_AND_TIME ( #139, #141 ) ;
#28 = PERSON_AND_ORGANIZATION ( #61, #85 ) ;
#29 = CC_DESIGN_APPROVAL ( #170, ( #81 ) ) ;
#30 = VERTEX_POINT ( 'NONE', #33 ) ;
#31 = CC_DESIGN_APPROVAL ( #107, ( #14 ) ) ;
#32 = CC_DESIGN_APPROVAL ( #119, ( #166 ) ) ;
#33 = CARTESIAN_POINT ( 'NONE',  ( 6.349999999999999645, 7.776507174585692163E-16, 0.000000000000000000 ) ) ;
#34 = AXIS2_PLACEMENT_3D ( 'NONE', #51, #129, #164 ) ;
#35 = DIRECTION ( 'NONE',  ( 1.000000000000000000, 0.000000000000000000, 0.000000000000000000 ) ) ;
#36 =( NAMED_UNIT ( * ) SI_UNIT ( $, .STERADIAN. ) SOLID_ANGLE_UNIT ( ) );
#37 = DIRECTION ( 'NONE',  ( 1.000000000000000000, 0.000000000000000000, 0.000000000000000000 ) ) ;
#38 = EDGE_CURVE ( 'NONE', #18, #30, #86, .T. ) ;
#39 = DATE_AND_TIME ( #135, #144 ) ;
#40 = APPROVAL_STATUS ( 'not_yet_approved' ) ;
#41 = AXIS2_PLACEMENT_3D ( 'NONE', #24, #117, #37 ) ;
#42 = CALENDAR_DATE ( 2022, 15, 3 ) ;
#43 = ADVANCED_FACE ( 'NONE', ( #161 ), #118, .T. ) ;
#44 = DESIGN_CONTEXT ( 'detailed design', #75, 'design' ) ;
#45 = ORIENTED_EDGE ( 'NONE', *, *, #79, .T. ) ;
#46 = FACE_OUTER_BOUND ( 'NONE', #21, .T. ) ;
#47 = AXIS2_PLACEMENT_3D ( 'NONE', #52, #102, #35 ) ;
#48 = DIRECTION ( 'NONE',  ( 0.000000000000000000, 0.000000000000000000, 1.000000000000000000 ) ) ;
#49 = ADVANCED_FACE ( 'NONE', ( #10 ), #8, .F. ) ;
#50 = PERSON_AND_ORGANIZATION ( #61, #85 ) ;
#51 = CARTESIAN_POINT ( 'NONE',  ( 0.000000000000000000, 0.000000000000000000, 0.5000000000000000000 ) ) ;
#52 = CARTESIAN_POINT ( 'NONE',  ( 0.000000000000000000, 0.000000000000000000, 0.000000000000000000 ) ) ;
#53 = CALENDAR_DATE ( 2022, 15, 3 ) ;
#54 = COORDINATED_UNIVERSAL_TIME_OFFSET ( 5, 0, .BEHIND. ) ;
#55 = CC_DESIGN_PERSON_AND_ORGANIZATION_ASSIGNMENT ( #80, #138, ( #81 ) ) ;
#56 = DIRECTION ( 'NONE',  ( -0.000000000000000000, -0.000000000000000000, -1.000000000000000000 ) ) ;
#57 = DIRECTION ( 'NONE',  ( -0.000000000000000000, -0.000000000000000000, -1.000000000000000000 ) ) ;
#58 = MECHANICAL_CONTEXT ( 'NONE', #128, 'mechanical' ) ;
#59 = EDGE_CURVE ( 'NONE', #84, #30, #103, .T. ) ;
#60 =( LENGTH_UNIT ( ) NAMED_UNIT ( * ) SI_UNIT ( .MILLI., .METRE. ) );
#61 = PERSON ( 'UNSPECIFIED', 'UNSPECIFIED', 'UNSPECIFIED', ('UNSPECIFIED'), ('UNSPECIFIED'), ('UNSPECIFIED') ) ;
#62 = CARTESIAN_POINT ( 'NONE',  ( -6.349999999999999645, 0.000000000000000000, 0.5000000000000000000 ) ) ;
#63 = DIRECTION ( 'NONE',  ( 1.000000000000000000, 0.000000000000000000, -0.000000000000000000 ) ) ;
#64 = DATE_AND_TIME ( #82, #155 ) ;
#65 = LOCAL_TIME ( 15, 17, 19.00000000000000000, #54 ) ;
#66 = SECURITY_CLASSIFICATION_LEVEL ( 'unclassified' ) ;
#67 = CC_DESIGN_PERSON_AND_ORGANIZATION_ASSIGNMENT ( #13, #122, ( #14 ) ) ;
#68 = ORIENTED_EDGE ( 'NONE', *, *, #79, .F. ) ;
#69 = VERTEX_POINT ( 'NONE', #62 ) ;
#70 = UNCERTAINTY_MEASURE_WITH_UNIT (LENGTH_MEASURE( 1.000000000000000082E-05 ), #60, 'distance_accuracy_value', 'NONE');
#71 = CARTESIAN_POINT ( 'NONE',  ( 6.349999999999999645, 7.776507174585692163E-16, 0.5000000000000000000 ) ) ;
#72 = ORIENTED_EDGE ( 'NONE', *, *, #38, .T. ) ;
#73 = CARTESIAN_POINT ( 'NONE',  ( 0.000000000000000000, 0.000000000000000000, 0.5000000000000000000 ) ) ;
#74 = APPLICATION_PROTOCOL_DEFINITION ( 'international standard', 'config_control_design', 1994, #75 ) ;
#75 = APPLICATION_CONTEXT ( 'configuration controlled 3d designs of mechanical parts and assemblies' ) ;
#76 = CIRCLE ( 'NONE', #2, 6.349999999999999645 ) ;
#77 = COORDINATED_UNIVERSAL_TIME_OFFSET ( 5, 0, .BEHIND. ) ;
#78 = AXIS2_PLACEMENT_3D ( 'NONE', #143, #90, #173 ) ;
#79 = EDGE_CURVE ( 'NONE', #69, #18, #150, .T. ) ;
#80 = PERSON_AND_ORGANIZATION ( #61, #85 ) ;
#81 = SECURITY_CLASSIFICATION ( '', '', #66 ) ;
#82 = CALENDAR_DATE ( 2022, 15, 3 ) ;
#83 = ORIENTED_EDGE ( 'NONE', *, *, #153, .T. ) ;
#84 = VERTEX_POINT ( 'NONE', #7 ) ;
#85 = ORGANIZATION ( 'UNSPECIFIED', 'UNSPECIFIED', '' ) ;
#86 = LINE ( 'NONE', #142, #172 ) ;
#87 = CC_DESIGN_PERSON_AND_ORGANIZATION_ASSIGNMENT ( #175, #121, ( #14 ) ) ;
#88 = DIRECTION ( 'NONE',  ( 0.000000000000000000, 0.000000000000000000, 1.000000000000000000 ) ) ;
#89 = DIRECTION ( 'NONE',  ( 1.000000000000000000, 0.000000000000000000, 0.000000000000000000 ) ) ;
#90 = DIRECTION ( 'NONE',  ( 0.000000000000000000, 0.000000000000000000, 1.000000000000000000 ) ) ;
#91 = PERSON_AND_ORGANIZATION_ROLE ( 'design_owner' ) ;
#92 = PERSON_AND_ORGANIZATION_ROLE ( 'creator' ) ;
#93 = APPROVAL_DATE_TIME ( #165, #170 ) ;
#94 = AXIS2_PLACEMENT_3D ( 'NONE', #115, #88, #132 ) ;
#95 = COORDINATED_UNIVERSAL_TIME_OFFSET ( 5, 0, .BEHIND. ) ;
#96 = AXIS2_PLACEMENT_3D ( 'NONE', #134, #104, #63 ) ;
#97 = ORIENTED_EDGE ( 'NONE', *, *, #59, .F. ) ;
#98 = EDGE_CURVE ( 'NONE', #18, #69, #76, .T. ) ;
#99 = ORIENTED_EDGE ( 'NONE', *, *, #59, .T. ) ;
#100 = ORIENTED_EDGE ( 'NONE', *, *, #38, .F. ) ;
#101 = CIRCLE ( 'NONE', #41, 6.349999999999999645 ) ;
#102 = DIRECTION ( 'NONE',  ( 0.000000000000000000, 0.000000000000000000, 1.000000000000000000 ) ) ;
#103 = CIRCLE ( 'NONE', #47, 6.349999999999999645 ) ;
#104 = DIRECTION ( 'NONE',  ( 0.000000000000000000, 0.000000000000000000, 1.000000000000000000 ) ) ;
#105 = CC_DESIGN_SECURITY_CLASSIFICATION ( #81, ( #14 ) ) ;
#106 = CARTESIAN_POINT ( 'NONE',  ( 0.000000000000000000, 0.000000000000000000, 0.5000000000000000000 ) ) ;
#107 = APPROVAL ( #40, 'UNSPECIFIED' ) ;
#108 = DATE_TIME_ROLE ( 'classification_date' ) ;
#109 = APPROVAL_ROLE ( '' ) ;
#110 = APPROVAL_STATUS ( 'not_yet_approved' ) ;
#111 = AXIS2_PLACEMENT_3D ( 'NONE', #23, #48, #89 ) ;
#112 = AXIS2_PLACEMENT_3D ( 'NONE', #73, #57, #140 ) ;
#113 = ADVANCED_FACE ( 'NONE', ( #25 ), #145, .T. ) ;
#114 = ORIENTED_EDGE ( 'NONE', *, *, #5, .T. ) ;
#115 = CARTESIAN_POINT ( 'NONE',  ( 0.000000000000000000, 0.000000000000000000, 0.5000000000000000000 ) ) ;
#116 = APPROVAL_ROLE ( '' ) ;
#117 = DIRECTION ( 'NONE',  ( 0.000000000000000000, 0.000000000000000000, 1.000000000000000000 ) ) ;
#118 = CYLINDRICAL_SURFACE ( 'NONE', #34, 6.349999999999999645 ) ;
#119 = APPROVAL ( #149, 'UNSPECIFIED' ) ;
#120 = APPROVAL_DATE_TIME ( #64, #119 ) ;
#121 = PERSON_AND_ORGANIZATION_ROLE ( 'design_supplier' ) ;
#122 = PERSON_AND_ORGANIZATION_ROLE ( 'creator' ) ;
#123 = APPROVAL_PERSON_ORGANIZATION ( #131, #119, #116 ) ;
#124 = CARTESIAN_POINT ( 'NONE',  ( -6.349999999999999645, 0.000000000000000000, 0.5000000000000000000 ) ) ;
#125 = CC_DESIGN_PERSON_AND_ORGANIZATION_ASSIGNMENT ( #167, #92, ( #166 ) ) ;
#126 = ORIENTED_EDGE ( 'NONE', *, *, #98, .T. ) ;
#127 = ORIENTED_EDGE ( 'NONE', *, *, #153, .F. ) ;
#128 = APPLICATION_CONTEXT ( 'configuration controlled 3d designs of mechanical parts and assemblies' ) ;
#129 = DIRECTION ( 'NONE',  ( -0.000000000000000000, -0.000000000000000000, -1.000000000000000000 ) ) ;
#130 = CC_DESIGN_DATE_AND_TIME_ASSIGNMENT ( #27, #152, ( #166 ) ) ;
#131 = PERSON_AND_ORGANIZATION ( #61, #85 ) ;
#132 = DIRECTION ( 'NONE',  ( 1.000000000000000000, 0.000000000000000000, 0.000000000000000000 ) ) ;
#133 = APPROVAL_PERSON_ORGANIZATION ( #28, #107, #15 ) ;
#134 = CARTESIAN_POINT ( 'NONE',  ( 0.000000000000000000, 0.000000000000000000, 0.5000000000000000000 ) ) ;
#135 = CALENDAR_DATE ( 2022, 15, 3 ) ;
#136 = LOCAL_TIME ( 15, 17, 19.00000000000000000, #17 ) ;
#137 = COORDINATED_UNIVERSAL_TIME_OFFSET ( 5, 0, .BEHIND. ) ;
#138 = PERSON_AND_ORGANIZATION_ROLE ( 'classification_officer' ) ;
#139 = CALENDAR_DATE ( 2022, 15, 3 ) ;
#140 = DIRECTION ( 'NONE',  ( -1.000000000000000000, 0.000000000000000000, 0.000000000000000000 ) ) ;
#141 = LOCAL_TIME ( 15, 17, 19.00000000000000000, #95 ) ;
#142 = CARTESIAN_POINT ( 'NONE',  ( 6.349999999999999645, 7.776507174585692163E-16, 0.5000000000000000000 ) ) ;
#143 = CARTESIAN_POINT ( 'NONE',  ( 0.000000000000000000, 0.000000000000000000, 0.000000000000000000 ) ) ;
#144 = LOCAL_TIME ( 15, 17, 19.00000000000000000, #137 ) ;
#145 = PLANE ( 'NONE',  #96 ) ;
#146 = VECTOR ( 'NONE', #56, 1000.000000000000000 ) ;
#147 = DIRECTION ( 'NONE',  ( 1.000000000000000000, 0.000000000000000000, 0.000000000000000000 ) ) ;
#148 = PRODUCT_DEFINITION_SHAPE ( 'NONE', 'NONE',  #166 ) ;
#149 = APPROVAL_STATUS ( 'not_yet_approved' ) ;
#150 = CIRCLE ( 'NONE', #94, 6.349999999999999645 ) ;
#151 = SHAPE_DEFINITION_REPRESENTATION ( #148, #174 ) ;
#152 = DATE_TIME_ROLE ( 'creation_date' ) ;
#153 = EDGE_CURVE ( 'NONE', #30, #84, #101, .T. ) ;
#154 = EDGE_LOOP ( 'NONE', ( #97, #127 ) ) ;
#155 = LOCAL_TIME ( 15, 17, 19.00000000000000000, #77 ) ;
#156 = ORIENTED_EDGE ( 'NONE', *, *, #5, .F. ) ;
#157 = ORIENTED_EDGE ( 'NONE', *, *, #98, .F. ) ;
#158 = CYLINDRICAL_SURFACE ( 'NONE', #112, 6.349999999999999645 ) ;
#159 =( NAMED_UNIT ( * ) PLANE_ANGLE_UNIT ( ) SI_UNIT ( $, .RADIAN. ) );
#160 = PRODUCT_RELATED_PRODUCT_CATEGORY ( 'detail', '', ( #163 ) ) ;
#161 = FACE_OUTER_BOUND ( 'NONE', #3, .T. ) ;
#162 =( GEOMETRIC_REPRESENTATION_CONTEXT ( 3 ) GLOBAL_UNCERTAINTY_ASSIGNED_CONTEXT ( ( #70 ) ) GLOBAL_UNIT_ASSIGNED_CONTEXT ( ( #60, #159, #36 ) ) REPRESENTATION_CONTEXT ( 'NONE', 'WORKASPACE' ) );
#163 = PRODUCT ( 'Web Model 68157_20634', 'Web Model 68157_20634', '', ( #58 ) ) ;
#164 = DIRECTION ( 'NONE',  ( -1.000000000000000000, 0.000000000000000000, 0.000000000000000000 ) ) ;
#165 = DATE_AND_TIME ( #53, #136 ) ;
#166 = PRODUCT_DEFINITION ( 'UNKNOWN', '', #14, #44 ) ;
#167 = PERSON_AND_ORGANIZATION ( #61, #85 ) ;
#168 = APPROVAL_DATE_TIME ( #39, #107 ) ;
#169 = EDGE_LOOP ( 'NONE', ( #45, #126 ) ) ;
#170 = APPROVAL ( #110, 'UNSPECIFIED' ) ;
#171 = DIRECTION ( 'NONE',  ( 0.000000000000000000, 0.000000000000000000, 1.000000000000000000 ) ) ;
#172 = VECTOR ( 'NONE', #22, 1000.000000000000000 ) ;
#173 = DIRECTION ( 'NONE',  ( 1.000000000000000000, 0.000000000000000000, -0.000000000000000000 ) ) ;
#174 = ADVANCED_BREP_SHAPE_REPRESENTATION ( 'Web Model 68157_20634', ( #19, #111 ), #162 ) ;
#175 = PERSON_AND_ORGANIZATION ( #61, #85 ) ;
ENDSEC;
END-ISO-10303-21;
