ISO-10303-21;
HEADER;
FILE_DESCRIPTION (( 'STEP AP203' ),
    '1' );
FILE_NAME ('4327-E0W.STEP',
    '2015-06-17T20:46:22',
    ( 'admin' ),
    ( '' ),
    'SwSTEP 2.0',
    'SolidWorks 2014',
    '' );
FILE_SCHEMA (( 'CONFIG_CONTROL_DESIGN' ));
ENDSEC;

DATA;
#1 = DIRECTION ( 'NONE',  ( -0.0000000000000000000, -0.0000000000000000000, 1.000000000000000000 ) ) ;
#2 = APPROVAL_STATUS ( 'not_yet_approved' ) ;
#3 = DIRECTION ( 'NONE',  ( 1.000000000000000000, 0.0000000000000000000, 0.0000000000000000000 ) ) ;
#4 = DIRECTION ( 'NONE',  ( 0.0000000000000000000, 0.0000000000000000000, -1.000000000000000000 ) ) ;
#5 = ORIENTED_EDGE ( 'NONE', *, *, #255, .F. ) ;
#6 = ORIENTED_EDGE ( 'NONE', *, *, #309, .T. ) ;
#7 = ORIENTED_EDGE ( 'NONE', *, *, #238, .F. ) ;
#8 = ORIENTED_EDGE ( 'NONE', *, *, #223, .F. ) ;
#9 = DIRECTION ( 'NONE',  ( -1.224646799147353200E-016, -1.000000000000000000, 0.0000000000000000000 ) ) ;
#10 = DIRECTION ( 'NONE',  ( -0.6906224448953367500, 0.0000000000000000000, -0.7232154855966426200 ) ) ;
#11 = CARTESIAN_POINT ( 'NONE',  ( -12.69999999999999900, 1.555301434917138400E-015, 1.300000000000000000 ) ) ;
#12 = PERSON_AND_ORGANIZATION ( #273, #190 ) ;
#13 = PRODUCT_DEFINITION ( 'UNKNOWN', '', #40, #278 ) ;
#14 = APPROVAL ( #362, 'UNSPECIFIED' ) ;
#15 = CARTESIAN_POINT ( 'NONE',  ( 0.0000000000000000000, 0.0000000000000000000, 0.7572283831283055400 ) ) ;
#16 = ORIENTED_EDGE ( 'NONE', *, *, #248, .T. ) ;
#17 = CIRCLE ( 'NONE', #264, 12.69999999999999900 ) ;
#18 = CIRCLE ( 'NONE', #361, 12.45037885798540600 ) ;
#19 = DIRECTION ( 'NONE',  ( -1.000000000000000000, 1.224646799147353200E-016, 0.0000000000000000000 ) ) ;
#20 = CARTESIAN_POINT ( 'NONE',  ( -1.524731661660443700E-015, -12.45037885798600300, 1.018630074850923600 ) ) ;
#21 = LOCAL_TIME ( 16, 46, 22.00000000000000000, #52 ) ;
#22 = DIRECTION ( 'NONE',  ( 0.0000000000000000000, 0.0000000000000000000, -1.000000000000000000 ) ) ;
#23 = CARTESIAN_POINT ( 'NONE',  ( 0.0000000000000000000, 0.0000000000000000000, -1.018630074850979100 ) ) ;
#24 = LINE ( 'NONE', #187, #111 ) ;
#25 = PRODUCT_RELATED_PRODUCT_CATEGORY ( 'detail', '', ( #251 ) ) ;
#26 = DIRECTION ( 'NONE',  ( 0.0000000000000000000, 1.000000000000000000, 0.0000000000000000000 ) ) ;
#27 = ORIENTED_EDGE ( 'NONE', *, *, #304, .F. ) ;
#28 = DIRECTION ( 'NONE',  ( -0.0000000000000000000, -0.0000000000000000000, 1.000000000000000000 ) ) ;
#29 = DIRECTION ( 'NONE',  ( -0.0000000000000000000, -0.0000000000000000000, 1.000000000000000000 ) ) ;
#30 =( GEOMETRIC_REPRESENTATION_CONTEXT ( 3 ) GLOBAL_UNCERTAINTY_ASSIGNED_CONTEXT ( ( #324 ) ) GLOBAL_UNIT_ASSIGNED_CONTEXT ( ( #232, #230, #281 ) ) REPRESENTATION_CONTEXT ( 'NONE', 'WORKASPACE' ) );
#31 = EDGE_CURVE ( 'NONE', #196, #81, #181, .T. ) ;
#32 = CARTESIAN_POINT ( 'NONE',  ( 0.0000000000000000000, 0.0000000000000000000, 1.018630074850923600 ) ) ;
#33 = DATE_TIME_ROLE ( 'creation_date' ) ;
#34 = ORIENTED_EDGE ( 'NONE', *, *, #107, .T. ) ;
#35 = ORIENTED_EDGE ( 'NONE', *, *, #161, .T. ) ;
#36 = DIRECTION ( 'NONE',  ( -1.000000000000000000, 0.0000000000000000000, 0.0000000000000000000 ) ) ;
#37 = CARTESIAN_POINT ( 'NONE',  ( 0.0000000000000000000, 0.0000000000000000000, 1.300000000000000000 ) ) ;
#38 = DIRECTION ( 'NONE',  ( 1.000000000000000000, 0.0000000000000000000, 0.0000000000000000000 ) ) ;
#39 = EDGE_CURVE ( 'NONE', #364, #275, #356, .T. ) ;
#40 = PRODUCT_DEFINITION_FORMATION_WITH_SPECIFIED_SOURCE ( 'ANY', '', #251, .NOT_KNOWN. ) ;
#41 = FACE_OUTER_BOUND ( 'NONE', #170, .T. ) ;
#42 = CARTESIAN_POINT ( 'NONE',  ( 0.0000000000000000000, 1.687563289225052700E-014, -1.300000000000023400 ) ) ;
#43 = APPLICATION_CONTEXT ( 'configuration controlled 3d designs of mechanical parts and assemblies' ) ;
#44 = EDGE_CURVE ( 'NONE', #81, #66, #142, .T. ) ;
#45 = CARTESIAN_POINT ( 'NONE',  ( 0.0000000000000000000, 0.0000000000000000000, -1.018630074850979100 ) ) ;
#46 = ORIENTED_EDGE ( 'NONE', *, *, #31, .F. ) ;
#47 = ADVANCED_FACE ( 'NONE', ( #235 ), #289, .T. ) ;
#48 = VECTOR ( 'NONE', #303, 1000.000000000000000 ) ;
#49 = CARTESIAN_POINT ( 'NONE',  ( 0.0000000000000000000, 0.0000000000000000000, 1.018630074850923600 ) ) ;
#50 = DIRECTION ( 'NONE',  ( -1.000000000000000000, 0.0000000000000000000, 0.0000000000000000000 ) ) ;
#51 = AXIS2_PLACEMENT_3D ( 'NONE', #136, #19, #9 ) ;
#52 = COORDINATED_UNIVERSAL_TIME_OFFSET ( 5, 0, .BEHIND. ) ;
#53 = CARTESIAN_POINT ( 'NONE',  ( 0.0000000000000000000, 0.0000000000000000000, 1.018630074850923600 ) ) ;
#54 = CALENDAR_DATE ( 2015, 17, 6 ) ;
#55 = EDGE_CURVE ( 'NONE', #275, #200, #18, .T. ) ;
#56 = PERSON_AND_ORGANIZATION ( #273, #190 ) ;
#57 = APPLICATION_PROTOCOL_DEFINITION ( 'international standard', 'config_control_design', 1994, #357 ) ;
#58 = ORIENTED_EDGE ( 'NONE', *, *, #329, .T. ) ;
#59 = APPROVAL_ROLE ( '' ) ;
#60 = AXIS2_PLACEMENT_3D ( 'NONE', #45, #4, #3 ) ;
#61 = CARTESIAN_POINT ( 'NONE',  ( 12.69999999999999900, 0.0000000000000000000, -0.7572283831284165600 ) ) ;
#62 = CONICAL_SURFACE ( 'NONE', #84, 12.69999999999999900, 0.7623493625838634300 ) ;
#63 = ORIENTED_EDGE ( 'NONE', *, *, #267, .F. ) ;
#64 = MANIFOLD_SOLID_BREP ( '4327-001-1-solid1', #227 ) ;
#65 = CARTESIAN_POINT ( 'NONE',  ( 0.0000000000000000000, 0.0000000000000000000, 274.3000000000000100 ) ) ;
#66 = VERTEX_POINT ( 'NONE', #322 ) ;
#67 = CARTESIAN_POINT ( 'NONE',  ( 0.0000000000000000000, 0.0000000000000000000, 274.3000000000000100 ) ) ;
#68 = AXIS2_PLACEMENT_3D ( 'NONE', #237, #126, #26 ) ;
#69 = ORIENTED_EDGE ( 'NONE', *, *, #334, .F. ) ;
#70 = EDGE_CURVE ( 'NONE', #318, #314, #333, .T. ) ;
#71 = ADVANCED_FACE ( 'NONE', ( #41 ), #62, .T. ) ;
#72 = AXIS2_PLACEMENT_3D ( 'NONE', #88, #354, #205 ) ;
#73 = FACE_OUTER_BOUND ( 'NONE', #150, .T. ) ;
#74 = ORIENTED_EDGE ( 'NONE', *, *, #352, .F. ) ;
#75 = SHAPE_DEFINITION_REPRESENTATION ( #359, #233 ) ;
#76 = AXIS2_PLACEMENT_3D ( 'NONE', #335, #173, #254 ) ;
#77 = CARTESIAN_POINT ( 'NONE',  ( 0.0000000000000000000, 0.0000000000000000000, 1.300000000000000000 ) ) ;
#78 = DIRECTION ( 'NONE',  ( -0.0000000000000000000, -0.0000000000000000000, 1.000000000000000000 ) ) ;
#79 = ORIENTED_EDGE ( 'NONE', *, *, #286, .T. ) ;
#80 = EDGE_CURVE ( 'NONE', #132, #196, #198, .T. ) ;
#81 = VERTEX_POINT ( 'NONE', #175 ) ;
#82 = CC_DESIGN_DATE_AND_TIME_ASSIGNMENT ( #336, #33, ( #13 ) ) ;
#83 = ORIENTED_EDGE ( 'NONE', *, *, #44, .T. ) ;
#84 = AXIS2_PLACEMENT_3D ( 'NONE', #195, #192, #306 ) ;
#85 = ORIENTED_EDGE ( 'NONE', *, *, #55, .T. ) ;
#86 = MECHANICAL_CONTEXT ( 'NONE', #357, 'mechanical' ) ;
#87 = DIRECTION ( 'NONE',  ( -1.000000000000000000, 0.0000000000000000000, 0.0000000000000000000 ) ) ;
#88 = CARTESIAN_POINT ( 'NONE',  ( 0.0000000000000000000, 0.0000000000000000000, -274.3000000000000100 ) ) ;
#89 = CARTESIAN_POINT ( 'NONE',  ( 0.0000000000000000000, 0.0000000000000000000, 1.018630074850979100 ) ) ;
#90 = ORIENTED_EDGE ( 'NONE', *, *, #334, .T. ) ;
#91 = CARTESIAN_POINT ( 'NONE',  ( 0.0000000000000000000, 0.0000000000000000000, -1.018630074850979100 ) ) ;
#92 = ORIENTED_EDGE ( 'NONE', *, *, #39, .T. ) ;
#93 = COORDINATED_UNIVERSAL_TIME_OFFSET ( 5, 0, .BEHIND. ) ;
#94 = DIRECTION ( 'NONE',  ( -1.000000000000000000, 1.224646799147353200E-016, 0.0000000000000000000 ) ) ;
#95 = ORIENTED_EDGE ( 'NONE', *, *, #44, .F. ) ;
#96 = CALENDAR_DATE ( 2015, 17, 6 ) ;
#97 = CARTESIAN_POINT ( 'NONE',  ( 0.0000000000000000000, 0.0000000000000000000, -274.3000000000000100 ) ) ;
#98 = ADVANCED_FACE ( 'NONE', ( #73 ), #252, .T. ) ;
#99 = PERSON_AND_ORGANIZATION ( #273, #190 ) ;
#100 = DIRECTION ( 'NONE',  ( 0.0000000000000000000, 0.0000000000000000000, -1.000000000000000000 ) ) ;
#101 = DATE_AND_TIME ( #133, #174 ) ;
#102 = DIRECTION ( 'NONE',  ( 1.000000000000000000, 0.0000000000000000000, 0.0000000000000000000 ) ) ;
#103 = CARTESIAN_POINT ( 'NONE',  ( -12.45037885798538500, 1.540016548288753200E-015, -1.018630074850979100 ) ) ;
#104 = CC_DESIGN_APPROVAL ( #14, ( #13 ) ) ;
#105 = CARTESIAN_POINT ( 'NONE',  ( 0.0000000000000000000, 0.0000000000000000000, -1.018630074850979100 ) ) ;
#106 = APPROVAL_DATE_TIME ( #101, #115 ) ;
#107 = EDGE_CURVE ( 'NONE', #66, #132, #179, .T. ) ;
#108 = DIRECTION ( 'NONE',  ( -0.0000000000000000000, -0.0000000000000000000, 1.000000000000000000 ) ) ;
#109 = AXIS2_PLACEMENT_3D ( 'NONE', #191, #1, #297 ) ;
#110 = VERTEX_POINT ( 'NONE', #42 ) ;
#111 = VECTOR ( 'NONE', #10, 1000.000000000000000 ) ;
#112 = CC_DESIGN_PERSON_AND_ORGANIZATION_ASSIGNMENT ( #269, #367, ( #251 ) ) ;
#113 = LINE ( 'NONE', #193, #146 ) ;
#114 = ORIENTED_EDGE ( 'NONE', *, *, #238, .T. ) ;
#115 = APPROVAL ( #242, 'UNSPECIFIED' ) ;
#116 = ORIENTED_EDGE ( 'NONE', *, *, #55, .F. ) ;
#117 = ORIENTED_EDGE ( 'NONE', *, *, #129, .T. ) ;
#118 = CIRCLE ( 'NONE', #300, 12.45037885798540600 ) ;
#119 = DIRECTION ( 'NONE',  ( -0.0000000000000000000, -0.0000000000000000000, 1.000000000000000000 ) ) ;
#120 = CC_DESIGN_APPROVAL ( #115, ( #271 ) ) ;
#121 = CONICAL_SURFACE ( 'NONE', #76, 12.45037885798538300, 0.7623493625837173300 ) ;
#122 = DIRECTION ( 'NONE',  ( 0.0000000000000000000, 0.0000000000000000000, -1.000000000000000000 ) ) ;
#123 = DIRECTION ( 'NONE',  ( 0.0000000000000000000, 0.0000000000000000000, -1.000000000000000000 ) ) ;
#124 = ADVANCED_FACE ( 'NONE', ( #164 ), #209, .T. ) ;
#125 = CARTESIAN_POINT ( 'NONE',  ( 0.0000000000000000000, 12.45037885798543400, -1.018630074850979100 ) ) ;
#126 = DIRECTION ( 'NONE',  ( -1.000000000000000000, 0.0000000000000000000, 0.0000000000000000000 ) ) ;
#127 = PERSON_AND_ORGANIZATION_ROLE ( 'creator' ) ;
#128 = LOCAL_TIME ( 16, 46, 22.00000000000000000, #93 ) ;
#129 = EDGE_CURVE ( 'NONE', #275, #199, #328, .T. ) ;
#130 = CARTESIAN_POINT ( 'NONE',  ( -12.45037885798540600, 0.0000000000000000000, 1.018630074850923600 ) ) ;
#131 = DIRECTION ( 'NONE',  ( -0.0000000000000000000, -0.0000000000000000000, 1.000000000000000000 ) ) ;
#132 = VERTEX_POINT ( 'NONE', #103 ) ;
#133 = CALENDAR_DATE ( 2015, 17, 6 ) ;
#134 = ORIENTED_EDGE ( 'NONE', *, *, #255, .T. ) ;
#135 = LINE ( 'NONE', #147, #48 ) ;
#136 = CARTESIAN_POINT ( 'NONE',  ( 0.0000000000000000000, 0.0000000000000000000, -274.3000000000000100 ) ) ;
#137 = ORIENTED_EDGE ( 'NONE', *, *, #309, .F. ) ;
#138 = APPROVAL_PERSON_ORGANIZATION ( #338, #115, #156 ) ;
#139 = EDGE_LOOP ( 'NONE', ( #220, #85, #79, #114 ) ) ;
#140 = DATE_TIME_ROLE ( 'classification_date' ) ;
#141 = CIRCLE ( 'NONE', #224, 12.69999999999999900 ) ;
#142 = CIRCLE ( 'NONE', #60, 12.45037885798538500 ) ;
#143 = CC_DESIGN_SECURITY_CLASSIFICATION ( #271, ( #40 ) ) ;
#144 = PERSON_AND_ORGANIZATION ( #273, #190 ) ;
#145 = AXIS2_PLACEMENT_3D ( 'NONE', #212, #38, #123 ) ;
#146 = VECTOR ( 'NONE', #317, 1000.000000000000000 ) ;
#147 = CARTESIAN_POINT ( 'NONE',  ( 12.45037885798538300, 1.524731661660367700E-015, 1.018630074850979100 ) ) ;
#148 = ORIENTED_EDGE ( 'NONE', *, *, #80, .T. ) ;
#149 = AXIS2_PLACEMENT_3D ( 'NONE', #37, #131, #219 ) ;
#150 = EDGE_LOOP ( 'NONE', ( #208, #58, #5, #346, #46 ) ) ;
#151 = DIRECTION ( 'NONE',  ( 1.000000000000000000, 0.0000000000000000000, 0.0000000000000000000 ) ) ;
#152 = APPROVAL_DATE_TIME ( #188, #167 ) ;
#153 = CC_DESIGN_DATE_AND_TIME_ASSIGNMENT ( #169, #140, ( #271 ) ) ;
#154 = VECTOR ( 'NONE', #226, 1000.000000000000000 ) ;
#155 = CARTESIAN_POINT ( 'NONE',  ( 12.45037885798540600, 1.540016548288754600E-015, 1.018630074850923600 ) ) ;
#156 = APPROVAL_ROLE ( '' ) ;
#157 = CALENDAR_DATE ( 2015, 17, 6 ) ;
#158 = ORIENTED_EDGE ( 'NONE', *, *, #293, .T. ) ;
#159 = AXIS2_PLACEMENT_3D ( 'NONE', #77, #182, #102 ) ;
#160 = VERTEX_POINT ( 'NONE', #320 ) ;
#161 = EDGE_CURVE ( 'NONE', #160, #314, #113, .T. ) ;
#162 = ORIENTED_EDGE ( 'NONE', *, *, #223, .T. ) ;
#163 = ORIENTED_EDGE ( 'NONE', *, *, #286, .F. ) ;
#164 = FACE_OUTER_BOUND ( 'NONE', #301, .T. ) ;
#165 = CONICAL_SURFACE ( 'NONE', #184, 12.45037885798538300, 0.7623493625837173300 ) ;
#166 = DIRECTION ( 'NONE',  ( -0.6906224448954424400, 8.457685665605229400E-017, 0.7232154855965417000 ) ) ;
#167 = APPROVAL ( #2, 'UNSPECIFIED' ) ;
#168 = LINE ( 'NONE', #11, #344 ) ;
#169 = DATE_AND_TIME ( #157, #21 ) ;
#170 = EDGE_LOOP ( 'NONE', ( #323, #260, #95, #16, #137 ) ) ;
#171 = ORIENTED_EDGE ( 'NONE', *, *, #178, .F. ) ;
#172 = AXIS2_PLACEMENT_3D ( 'NONE', #23, #22, #151 ) ;
#173 = DIRECTION ( 'NONE',  ( 0.0000000000000000000, 0.0000000000000000000, -1.000000000000000000 ) ) ;
#174 = LOCAL_TIME ( 16, 46, 22.00000000000000000, #203 ) ;
#175 = CARTESIAN_POINT ( 'NONE',  ( 12.45037885798538500, 0.0000000000000000000, -1.018630074850979100 ) ) ;
#176 = AXIS2_PLACEMENT_3D ( 'NONE', #65, #36, #315 ) ;
#177 = ADVANCED_FACE ( 'NONE', ( #341 ), #165, .T. ) ;
#178 = EDGE_CURVE ( 'NONE', #110, #196, #256, .T. ) ;
#179 = CIRCLE ( 'NONE', #172, 12.45037885798538500 ) ;
#180 = APPROVAL_DATE_TIME ( #194, #14 ) ;
#181 = CIRCLE ( 'NONE', #231, 12.45037885798538500 ) ;
#182 = DIRECTION ( 'NONE',  ( -0.0000000000000000000, -0.0000000000000000000, 1.000000000000000000 ) ) ;
#183 = VERTEX_POINT ( 'NONE', #236 ) ;
#184 = AXIS2_PLACEMENT_3D ( 'NONE', #89, #214, #294 ) ;
#185 = EDGE_LOOP ( 'NONE', ( #163, #290, #288, #69, #63 ) ) ;
#186 = SECURITY_CLASSIFICATION_LEVEL ( 'unclassified' ) ;
#187 = CARTESIAN_POINT ( 'NONE',  ( -12.45037885798538300, 0.0000000000000000000, 1.018630074850979100 ) ) ;
#188 = DATE_AND_TIME ( #211, #280 ) ;
#189 = VERTEX_POINT ( 'NONE', #222 ) ;
#190 = ORGANIZATION ( 'UNSPECIFIED', 'UNSPECIFIED', '' ) ;
#191 = CARTESIAN_POINT ( 'NONE',  ( 0.0000000000000000000, 0.0000000000000000000, -0.7572283831284165600 ) ) ;
#192 = DIRECTION ( 'NONE',  ( -0.0000000000000000000, -0.0000000000000000000, 1.000000000000000000 ) ) ;
#193 = CARTESIAN_POINT ( 'NONE',  ( 12.69999999999999900, 0.0000000000000000000, 1.300000000000000000 ) ) ;
#194 = DATE_AND_TIME ( #54, #221 ) ;
#195 = CARTESIAN_POINT ( 'NONE',  ( 0.0000000000000000000, 0.0000000000000000000, -0.7572283831284165600 ) ) ;
#196 = VERTEX_POINT ( 'NONE', #125 ) ;
#197 = DIRECTION ( 'NONE',  ( -1.000000000000000000, 0.0000000000000000000, 0.0000000000000000000 ) ) ;
#198 = CIRCLE ( 'NONE', #249, 12.45037885798538500 ) ;
#199 = VERTEX_POINT ( 'NONE', #268 ) ;
#200 = VERTEX_POINT ( 'NONE', #155 ) ;
#201 = PERSON_AND_ORGANIZATION_ROLE ( 'classification_officer' ) ;
#202 = DIRECTION ( 'NONE',  ( 0.0000000000000000000, 0.0000000000000000000, 1.000000000000000000 ) ) ;
#203 = COORDINATED_UNIVERSAL_TIME_OFFSET ( 5, 0, .BEHIND. ) ;
#204 = FACE_OUTER_BOUND ( 'NONE', #291, .T. ) ;
#205 = DIRECTION ( 'NONE',  ( 0.0000000000000000000, 1.000000000000000000, 0.0000000000000000000 ) ) ;
#206 = FACE_OUTER_BOUND ( 'NONE', #139, .T. ) ;
#207 = ADVANCED_FACE ( 'NONE', ( #204 ), #313, .T. ) ;
#208 = ORIENTED_EDGE ( 'NONE', *, *, #80, .F. ) ;
#209 = CYLINDRICAL_SURFACE ( 'NONE', #159, 12.69999999999999900 ) ;
#210 = DIRECTION ( 'NONE',  ( -1.000000000000000000, 0.0000000000000000000, 0.0000000000000000000 ) ) ;
#211 = CALENDAR_DATE ( 2015, 17, 6 ) ;
#212 = CARTESIAN_POINT ( 'NONE',  ( 0.0000000000000000000, 0.0000000000000000000, 274.3000000000000100 ) ) ;
#213 = EDGE_LOOP ( 'NONE', ( #134, #162, #282, #340 ) ) ;
#214 = DIRECTION ( 'NONE',  ( 0.0000000000000000000, 0.0000000000000000000, -1.000000000000000000 ) ) ;
#215 = CIRCLE ( 'NONE', #259, 275.6000000000000800 ) ;
#216 = DIRECTION ( 'NONE',  ( 1.000000000000000000, 0.0000000000000000000, 0.0000000000000000000 ) ) ;
#217 = CC_DESIGN_PERSON_AND_ORGANIZATION_ASSIGNMENT ( #144, #366, ( #40 ) ) ;
#218 = DIRECTION ( 'NONE',  ( 0.0000000000000000000, 0.0000000000000000000, -1.000000000000000000 ) ) ;
#219 = DIRECTION ( 'NONE',  ( 1.000000000000000000, 0.0000000000000000000, 0.0000000000000000000 ) ) ;
#220 = ORIENTED_EDGE ( 'NONE', *, *, #129, .F. ) ;
#221 = LOCAL_TIME ( 16, 46, 22.00000000000000000, #298 ) ;
#222 = CARTESIAN_POINT ( 'NONE',  ( -12.69999999999999900, 1.555301434917138400E-015, -0.7572283831284165600 ) ) ;
#223 = EDGE_CURVE ( 'NONE', #189, #318, #168, .T. ) ;
#224 = AXIS2_PLACEMENT_3D ( 'NONE', #351, #29, #270 ) ;
#225 = SPHERICAL_SURFACE ( 'NONE', #353, 275.6000000000000200 ) ;
#226 = DIRECTION ( 'NONE',  ( 0.6906224448954424400, 0.0000000000000000000, 0.7232154855965417000 ) ) ;
#227 = CLOSED_SHELL ( 'NONE', ( #229, #98, #207, #47, #343, #312, #124, #285, #71, #177 ) ) ;
#228 = CC_DESIGN_APPROVAL ( #167, ( #40 ) ) ;
#229 = ADVANCED_FACE ( 'NONE', ( #266 ), #121, .T. ) ;
#230 =( NAMED_UNIT ( * ) PLANE_ANGLE_UNIT ( ) SI_UNIT ( $, .RADIAN. ) );
#231 = AXIS2_PLACEMENT_3D ( 'NONE', #91, #218, #246 ) ;
#232 =( LENGTH_UNIT ( ) NAMED_UNIT ( * ) SI_UNIT ( .MILLI., .METRE. ) );
#233 = ADVANCED_BREP_SHAPE_REPRESENTATION ( '4327-E0W', ( #64, #331 ), #30 ) ;
#234 = LINE ( 'NONE', #61, #154 ) ;
#235 = FACE_OUTER_BOUND ( 'NONE', #213, .T. ) ;
#236 = CARTESIAN_POINT ( 'NONE',  ( 0.0000000000000000000, 12.45037885798600300, 1.018630074850923600 ) ) ;
#237 = CARTESIAN_POINT ( 'NONE',  ( 0.0000000000000000000, 0.0000000000000000000, 274.3000000000000100 ) ) ;
#238 = EDGE_CURVE ( 'NONE', #183, #199, #215, .T. ) ;
#239 = AXIS2_PLACEMENT_3D ( 'NONE', #49, #108, #87 ) ;
#240 = ORIENTED_EDGE ( 'NONE', *, *, #31, .T. ) ;
#241 = SPHERICAL_SURFACE ( 'NONE', #176, 275.6000000000000200 ) ;
#242 = APPROVAL_STATUS ( 'not_yet_approved' ) ;
#243 = CARTESIAN_POINT ( 'NONE',  ( 0.0000000000000000000, 0.0000000000000000000, -274.3000000000000100 ) ) ;
#244 = DIRECTION ( 'NONE',  ( -1.224646799147353200E-016, -1.000000000000000000, 0.0000000000000000000 ) ) ;
#245 = DIRECTION ( 'NONE',  ( 0.0000000000000000000, 0.0000000000000000000, -1.000000000000000000 ) ) ;
#246 = DIRECTION ( 'NONE',  ( 1.000000000000000000, 0.0000000000000000000, 0.0000000000000000000 ) ) ;
#247 = DIRECTION ( 'NONE',  ( -1.000000000000000000, 0.0000000000000000000, 0.0000000000000000000 ) ) ;
#248 = EDGE_CURVE ( 'NONE', #81, #160, #234, .T. ) ;
#249 = AXIS2_PLACEMENT_3D ( 'NONE', #105, #122, #250 ) ;
#250 = DIRECTION ( 'NONE',  ( 1.000000000000000000, 0.0000000000000000000, 0.0000000000000000000 ) ) ;
#251 = PRODUCT ( '4327-E0W', '4327-E0W', '', ( #86 ) ) ;
#252 = CONICAL_SURFACE ( 'NONE', #109, 12.69999999999999900, 0.7623493625838634300 ) ;
#253 = FACE_OUTER_BOUND ( 'NONE', #330, .T. ) ;
#254 = DIRECTION ( 'NONE',  ( -1.000000000000000000, 0.0000000000000000000, 0.0000000000000000000 ) ) ;
#255 = EDGE_CURVE ( 'NONE', #160, #189, #141, .T. ) ;
#256 = CIRCLE ( 'NONE', #145, 275.6000000000000200 ) ;
#257 = CC_DESIGN_PERSON_AND_ORGANIZATION_ASSIGNMENT ( #305, #127, ( #13 ) ) ;
#258 = PERSON_AND_ORGANIZATION_ROLE ( 'design_supplier' ) ;
#259 = AXIS2_PLACEMENT_3D ( 'NONE', #243, #337, #245 ) ;
#260 = ORIENTED_EDGE ( 'NONE', *, *, #107, .F. ) ;
#261 = CIRCLE ( 'NONE', #345, 12.69999999999999900 ) ;
#262 = DIRECTION ( 'NONE',  ( -1.000000000000000000, 0.0000000000000000000, 0.0000000000000000000 ) ) ;
#263 = EDGE_LOOP ( 'NONE', ( #74, #116, #265, #90, #27 ) ) ;
#264 = AXIS2_PLACEMENT_3D ( 'NONE', #327, #100, #262 ) ;
#265 = ORIENTED_EDGE ( 'NONE', *, *, #39, .F. ) ;
#266 = FACE_OUTER_BOUND ( 'NONE', #185, .T. ) ;
#267 = EDGE_CURVE ( 'NONE', #183, #364, #118, .T. ) ;
#268 = CARTESIAN_POINT ( 'NONE',  ( 0.0000000000000000000, 1.687563289225052700E-014, 1.300000000000023400 ) ) ;
#269 = PERSON_AND_ORGANIZATION ( #273, #190 ) ;
#270 = DIRECTION ( 'NONE',  ( 1.000000000000000000, 0.0000000000000000000, 0.0000000000000000000 ) ) ;
#271 = SECURITY_CLASSIFICATION ( '', '', #186 ) ;
#272 = FACE_OUTER_BOUND ( 'NONE', #342, .T. ) ;
#273 = PERSON ( 'UNSPECIFIED', 'UNSPECIFIED', 'UNSPECIFIED', ('UNSPECIFIED'), ('UNSPECIFIED'), ('UNSPECIFIED') ) ;
#274 = CARTESIAN_POINT ( 'NONE',  ( 0.0000000000000000000, 0.0000000000000000000, 1.018630074850923600 ) ) ;
#275 = VERTEX_POINT ( 'NONE', #20 ) ;
#276 = SPHERICAL_SURFACE ( 'NONE', #72, 275.6000000000000200 ) ;
#277 = AXIS2_PLACEMENT_3D ( 'NONE', #32, #299, #358 ) ;
#278 = DESIGN_CONTEXT ( 'detailed design', #43, 'design' ) ;
#279 = APPROVAL_ROLE ( '' ) ;
#280 = LOCAL_TIME ( 16, 46, 22.00000000000000000, #292 ) ;
#281 =( NAMED_UNIT ( * ) SI_UNIT ( $, .STERADIAN. ) SOLID_ANGLE_UNIT ( ) );
#282 = ORIENTED_EDGE ( 'NONE', *, *, #70, .T. ) ;
#283 = CIRCLE ( 'NONE', #287, 275.6000000000000200 ) ;
#284 = CC_DESIGN_PERSON_AND_ORGANIZATION_ASSIGNMENT ( #99, #258, ( #40 ) ) ;
#285 = ADVANCED_FACE ( 'NONE', ( #253 ), #241, .T. ) ;
#286 = EDGE_CURVE ( 'NONE', #200, #183, #310, .T. ) ;
#287 = AXIS2_PLACEMENT_3D ( 'NONE', #67, #94, #244 ) ;
#288 = ORIENTED_EDGE ( 'NONE', *, *, #70, .F. ) ;
#289 = CYLINDRICAL_SURFACE ( 'NONE', #149, 12.69999999999999900 ) ;
#290 = ORIENTED_EDGE ( 'NONE', *, *, #352, .T. ) ;
#291 = EDGE_LOOP ( 'NONE', ( #171, #158, #34, #148 ) ) ;
#292 = COORDINATED_UNIVERSAL_TIME_OFFSET ( 5, 0, .BEHIND. ) ;
#293 = EDGE_CURVE ( 'NONE', #110, #66, #283, .T. ) ;
#294 = DIRECTION ( 'NONE',  ( -1.000000000000000000, 0.0000000000000000000, 0.0000000000000000000 ) ) ;
#295 = CC_DESIGN_PERSON_AND_ORGANIZATION_ASSIGNMENT ( #56, #201, ( #271 ) ) ;
#296 = ORIENTED_EDGE ( 'NONE', *, *, #304, .T. ) ;
#297 = DIRECTION ( 'NONE',  ( 1.000000000000000000, 0.0000000000000000000, 0.0000000000000000000 ) ) ;
#298 = COORDINATED_UNIVERSAL_TIME_OFFSET ( 5, 0, .BEHIND. ) ;
#299 = DIRECTION ( 'NONE',  ( -0.0000000000000000000, -0.0000000000000000000, 1.000000000000000000 ) ) ;
#300 = AXIS2_PLACEMENT_3D ( 'NONE', #274, #119, #197 ) ;
#301 = EDGE_LOOP ( 'NONE', ( #8, #6, #35, #296 ) ) ;
#302 = APPROVAL_PERSON_ORGANIZATION ( #311, #167, #59 ) ;
#303 = DIRECTION ( 'NONE',  ( 0.6906224448953367500, 8.457685665603935200E-017, -0.7232154855966426200 ) ) ;
#304 = EDGE_CURVE ( 'NONE', #314, #318, #17, .T. ) ;
#305 = PERSON_AND_ORGANIZATION ( #273, #190 ) ;
#306 = DIRECTION ( 'NONE',  ( 1.000000000000000000, 0.0000000000000000000, 0.0000000000000000000 ) ) ;
#307 = ORIENTED_EDGE ( 'NONE', *, *, #267, .T. ) ;
#308 = ORIENTED_EDGE ( 'NONE', *, *, #293, .F. ) ;
#309 = EDGE_CURVE ( 'NONE', #189, #160, #261, .T. ) ;
#310 = CIRCLE ( 'NONE', #239, 12.45037885798540600 ) ;
#311 = PERSON_AND_ORGANIZATION ( #273, #190 ) ;
#312 = ADVANCED_FACE ( 'NONE', ( #206 ), #225, .T. ) ;
#313 = SPHERICAL_SURFACE ( 'NONE', #68, 275.6000000000000200 ) ;
#314 = VERTEX_POINT ( 'NONE', #316 ) ;
#315 = DIRECTION ( 'NONE',  ( 0.0000000000000000000, 1.000000000000000000, 0.0000000000000000000 ) ) ;
#316 = CARTESIAN_POINT ( 'NONE',  ( 12.69999999999999900, 0.0000000000000000000, 0.7572283831283055400 ) ) ;
#317 = DIRECTION ( 'NONE',  ( -0.0000000000000000000, -0.0000000000000000000, 1.000000000000000000 ) ) ;
#318 = VERTEX_POINT ( 'NONE', #321 ) ;
#319 = CARTESIAN_POINT ( 'NONE',  ( 0.0000000000000000000, 0.0000000000000000000, 0.0000000000000000000 ) ) ;
#320 = CARTESIAN_POINT ( 'NONE',  ( 12.69999999999999900, 0.0000000000000000000, -0.7572283831284165600 ) ) ;
#321 = CARTESIAN_POINT ( 'NONE',  ( -12.69999999999999900, 1.555301434917138400E-015, 0.7572283831283055400 ) ) ;
#322 = CARTESIAN_POINT ( 'NONE',  ( -1.524731661660374000E-015, -12.45037885798543400, -1.018630074850979100 ) ) ;
#323 = ORIENTED_EDGE ( 'NONE', *, *, #329, .F. ) ;
#324 = UNCERTAINTY_MEASURE_WITH_UNIT (LENGTH_MEASURE( 1.000000000000000100E-005 ), #232, 'distance_accuracy_value', 'NONE');
#325 = DIRECTION ( 'NONE',  ( 1.000000000000000000, 0.0000000000000000000, 0.0000000000000000000 ) ) ;
#326 = DIRECTION ( 'NONE',  ( 0.0000000000000000000, 1.000000000000000000, 0.0000000000000000000 ) ) ;
#327 = CARTESIAN_POINT ( 'NONE',  ( 0.0000000000000000000, 0.0000000000000000000, 0.7572283831283055400 ) ) ;
#328 = CIRCLE ( 'NONE', #51, 275.6000000000000200 ) ;
#329 = EDGE_CURVE ( 'NONE', #132, #189, #365, .T. ) ;
#330 = EDGE_LOOP ( 'NONE', ( #308, #363, #240, #83 ) ) ;
#331 = AXIS2_PLACEMENT_3D ( 'NONE', #319, #202, #216 ) ;
#332 = CARTESIAN_POINT ( 'NONE',  ( -12.69999999999999900, 1.555301434917138400E-015, -0.7572283831284165600 ) ) ;
#333 = CIRCLE ( 'NONE', #349, 12.69999999999999900 ) ;
#334 = EDGE_CURVE ( 'NONE', #364, #318, #24, .T. ) ;
#335 = CARTESIAN_POINT ( 'NONE',  ( 0.0000000000000000000, 0.0000000000000000000, 1.018630074850979100 ) ) ;
#336 = DATE_AND_TIME ( #96, #128 ) ;
#337 = DIRECTION ( 'NONE',  ( 1.000000000000000000, -0.0000000000000000000, 0.0000000000000000000 ) ) ;
#338 = PERSON_AND_ORGANIZATION ( #273, #190 ) ;
#339 = CARTESIAN_POINT ( 'NONE',  ( 0.0000000000000000000, 0.0000000000000000000, -0.7572283831284165600 ) ) ;
#340 = ORIENTED_EDGE ( 'NONE', *, *, #161, .F. ) ;
#341 = FACE_OUTER_BOUND ( 'NONE', #263, .T. ) ;
#342 = EDGE_LOOP ( 'NONE', ( #307, #92, #117, #7 ) ) ;
#343 = ADVANCED_FACE ( 'NONE', ( #272 ), #276, .T. ) ;
#344 = VECTOR ( 'NONE', #28, 1000.000000000000000 ) ;
#345 = AXIS2_PLACEMENT_3D ( 'NONE', #339, #360, #325 ) ;
#346 = ORIENTED_EDGE ( 'NONE', *, *, #248, .F. ) ;
#347 = APPLICATION_PROTOCOL_DEFINITION ( 'international standard', 'config_control_design', 1994, #43 ) ;
#348 = APPROVAL_PERSON_ORGANIZATION ( #12, #14, #279 ) ;
#349 = AXIS2_PLACEMENT_3D ( 'NONE', #15, #350, #247 ) ;
#350 = DIRECTION ( 'NONE',  ( 0.0000000000000000000, 0.0000000000000000000, -1.000000000000000000 ) ) ;
#351 = CARTESIAN_POINT ( 'NONE',  ( 0.0000000000000000000, 0.0000000000000000000, -0.7572283831284165600 ) ) ;
#352 = EDGE_CURVE ( 'NONE', #200, #314, #135, .T. ) ;
#353 = AXIS2_PLACEMENT_3D ( 'NONE', #97, #50, #326 ) ;
#354 = DIRECTION ( 'NONE',  ( -1.000000000000000000, 0.0000000000000000000, 0.0000000000000000000 ) ) ;
#355 = VECTOR ( 'NONE', #166, 1000.000000000000000 ) ;
#356 = CIRCLE ( 'NONE', #277, 12.45037885798540600 ) ;
#357 = APPLICATION_CONTEXT ( 'configuration controlled 3d designs of mechanical parts and assemblies' ) ;
#358 = DIRECTION ( 'NONE',  ( -1.000000000000000000, 0.0000000000000000000, 0.0000000000000000000 ) ) ;
#359 = PRODUCT_DEFINITION_SHAPE ( 'NONE', 'NONE',  #13 ) ;
#360 = DIRECTION ( 'NONE',  ( -0.0000000000000000000, -0.0000000000000000000, 1.000000000000000000 ) ) ;
#361 = AXIS2_PLACEMENT_3D ( 'NONE', #53, #78, #210 ) ;
#362 = APPROVAL_STATUS ( 'not_yet_approved' ) ;
#363 = ORIENTED_EDGE ( 'NONE', *, *, #178, .T. ) ;
#364 = VERTEX_POINT ( 'NONE', #130 ) ;
#365 = LINE ( 'NONE', #332, #355 ) ;
#366 = PERSON_AND_ORGANIZATION_ROLE ( 'creator' ) ;
#367 = PERSON_AND_ORGANIZATION_ROLE ( 'design_owner' ) ;
ENDSEC;
END-ISO-10303-21;
