ISO-10303-21;
HEADER;
FILE_DESCRIPTION (( 'STEP AP203' ),
    '1' );
FILE_NAME ('step_35952.step',
    '2017-05-22T20:26:38',
    ( '' ),
    ( '' ),
    'SwSTEP 2.0',
    'SolidWorks 2016',
    '' );
FILE_SCHEMA (( 'CONFIG_CONTROL_DESIGN' ));
ENDSEC;

DATA;
#1 = CARTESIAN_POINT ( 'NONE',  ( -12.49999999999999600, -12.50000000000000200, 1.000000000000000000 ) ) ;
#2 = DIRECTION ( 'NONE',  ( 1.000000000000000000, 0.0000000000000000000, 0.0000000000000000000 ) ) ;
#3 = CC_DESIGN_SECURITY_CLASSIFICATION ( #22, ( #45 ) ) ;
#4 = APPROVAL_DATE_TIME ( #174, #14 ) ;
#5 = COORDINATED_UNIVERSAL_TIME_OFFSET ( 7, 0, .BEHIND. ) ;
#6 = CC_DESIGN_APPROVAL ( #14, ( #22 ) ) ;
#7 = APPROVAL_PERSON_ORGANIZATION ( #9, #14, #102 ) ;
#8 = CARTESIAN_POINT ( 'NONE',  ( -12.49999999999999600, -12.50000000000000200, 0.0000000000000000000 ) ) ;
#9 = PERSON_AND_ORGANIZATION ( #218, #104 ) ;
#10 = DIRECTION ( 'NONE',  ( -0.0000000000000000000, 0.0000000000000000000, 1.000000000000000000 ) ) ;
#11 = DIRECTION ( 'NONE',  ( -1.387778780781445700E-016, 1.000000000000000000, 0.0000000000000000000 ) ) ;
#12 = DIRECTION ( 'NONE',  ( 1.000000000000000000, 0.0000000000000000000, 0.0000000000000000000 ) ) ;
#13 = DATE_AND_TIME ( #17, #18 ) ;
#14 = APPROVAL ( #74, 'UNSPECIFIED' ) ;
#15 = DIRECTION ( 'NONE',  ( -1.387778780781445700E-016, 1.000000000000000000, -0.0000000000000000000 ) ) ;
#16 = CC_DESIGN_DATE_AND_TIME_ASSIGNMENT ( #13, #176, ( #22 ) ) ;
#17 = CALENDAR_DATE ( 2017, 22, 5 ) ;
#18 = LOCAL_TIME ( 13, 26, 38.00000000000000000, #19 ) ;
#19 = COORDINATED_UNIVERSAL_TIME_OFFSET ( 7, 0, .BEHIND. ) ;
#20 = CC_DESIGN_PERSON_AND_ORGANIZATION_ASSIGNMENT ( #21, #130, ( #22 ) ) ;
#21 = PERSON_AND_ORGANIZATION ( #218, #104 ) ;
#22 = SECURITY_CLASSIFICATION ( '', '', #164 ) ;
#23 = CC_DESIGN_PERSON_AND_ORGANIZATION_ASSIGNMENT ( #24, #233, ( #45 ) ) ;
#24 = PERSON_AND_ORGANIZATION ( #218, #104 ) ;
#25 = PERSON_AND_ORGANIZATION ( #218, #104 ) ;
#26 = APPROVAL_DATE_TIME ( #31, #43 ) ;
#27 = CC_DESIGN_PERSON_AND_ORGANIZATION_ASSIGNMENT ( #25, #133, ( #45 ) ) ;
#28 = CARTESIAN_POINT ( 'NONE',  ( 12.50000000000000000, 12.49999999999999600, 1.000000000000000000 ) ) ;
#29 = PLANE ( 'NONE',  #237 ) ;
#30 = ADVANCED_FACE ( 'NONE', ( #42 ), #29, .F. ) ;
#31 = DATE_AND_TIME ( #32, #33 ) ;
#32 = CALENDAR_DATE ( 2017, 22, 5 ) ;
#33 = LOCAL_TIME ( 13, 26, 38.00000000000000000, #34 ) ;
#34 = COORDINATED_UNIVERSAL_TIME_OFFSET ( 7, 0, .BEHIND. ) ;
#35 = APPROVAL_PERSON_ORGANIZATION ( #38, #43, #136 ) ;
#36 = CC_DESIGN_APPROVAL ( #43, ( #45 ) ) ;
#37 = LOCAL_TIME ( 13, 26, 38.00000000000000000, #5 ) ;
#38 = PERSON_AND_ORGANIZATION ( #218, #104 ) ;
#39 = PLANE ( 'NONE',  #78 ) ;
#40 = DATE_AND_TIME ( #48, #44 ) ;
#41 = PLANE ( 'NONE',  #106 ) ;
#42 = FACE_OUTER_BOUND ( 'NONE', #206, .T. ) ;
#43 = APPROVAL ( #138, 'UNSPECIFIED' ) ;
#44 = LOCAL_TIME ( 13, 26, 38.00000000000000000, #193 ) ;
#45 = PRODUCT_DEFINITION_FORMATION_WITH_SPECIFIED_SOURCE ( 'ANY', '', #199, .NOT_KNOWN. ) ;
#46 = APPROVAL_DATE_TIME ( #159, #55 ) ;
#47 = VERTEX_POINT ( 'NONE', #160 ) ;
#48 = CALENDAR_DATE ( 2017, 22, 5 ) ;
#49 = LINE ( 'NONE', #185, #120 ) ;
#50 = CC_DESIGN_DATE_AND_TIME_ASSIGNMENT ( #40, #139, ( #57 ) ) ;
#51 = DIRECTION ( 'NONE',  ( -1.000000000000000000, -1.387778780781445700E-016, 0.0000000000000000000 ) ) ;
#52 = CC_DESIGN_PERSON_AND_ORGANIZATION_ASSIGNMENT ( #201, #140, ( #57 ) ) ;
#53 = VECTOR ( 'NONE', #15, 1000.000000000000000 ) ;
#54 = ORIENTED_EDGE ( 'NONE', *, *, #207, .F. ) ;
#55 = APPROVAL ( #142, 'UNSPECIFIED' ) ;
#56 = VECTOR ( 'NONE', #84, 1000.000000000000000 ) ;
#57 = PRODUCT_DEFINITION ( 'UNKNOWN', '', #45, #161 ) ;
#58 = CARTESIAN_POINT ( 'NONE',  ( -12.50000000000000000, 12.49999999999999600, 0.0000000000000000000 ) ) ;
#59 = CC_DESIGN_PERSON_AND_ORGANIZATION_ASSIGNMENT ( #155, #92, ( #199 ) ) ;
#60 = EDGE_LOOP ( 'NONE', ( #209, #131, #228, #153 ) ) ;
#61 = CARTESIAN_POINT ( 'NONE',  ( -12.50000000000000000, 12.49999999999999600, 1.000000000000000000 ) ) ;
#62 = AXIS2_PLACEMENT_3D ( 'NONE', #221, #86, #68 ) ;
#63 = DIRECTION ( 'NONE',  ( -0.0000000000000000000, -0.0000000000000000000, -1.000000000000000000 ) ) ;
#64 = LINE ( 'NONE', #94, #183 ) ;
#65 = DIRECTION ( 'NONE',  ( -1.387778780781445700E-016, 1.000000000000000000, -0.0000000000000000000 ) ) ;
#66 =( LENGTH_UNIT ( ) NAMED_UNIT ( * ) SI_UNIT ( .MILLI., .METRE. ) );
#67 = CARTESIAN_POINT ( 'NONE',  ( -12.50000000000000000, 12.49999999999999600, 1.000000000000000000 ) ) ;
#68 = DIRECTION ( 'NONE',  ( 1.000000000000000000, 0.0000000000000000000, 0.0000000000000000000 ) ) ;
#69 = LINE ( 'NONE', #89, #235 ) ;
#70 = CC_DESIGN_APPROVAL ( #55, ( #57 ) ) ;
#71 = DIRECTION ( 'NONE',  ( 1.000000000000000000, 1.387778780781445700E-016, -0.0000000000000000000 ) ) ;
#72 = CARTESIAN_POINT ( 'NONE',  ( -12.50000000000000000, 12.49999999999999600, 1.000000000000000000 ) ) ;
#73 = ORIENTED_EDGE ( 'NONE', *, *, #216, .F. ) ;
#74 = APPROVAL_STATUS ( 'not_yet_approved' ) ;
#75 = SHAPE_DEFINITION_REPRESENTATION ( #215, #225 ) ;
#76 = PRODUCT_RELATED_PRODUCT_CATEGORY ( 'detail', '', ( #199 ) ) ;
#77 = DIRECTION ( 'NONE',  ( -0.0000000000000000000, -0.0000000000000000000, -1.000000000000000000 ) ) ;
#78 = AXIS2_PLACEMENT_3D ( 'NONE', #67, #71, #11 ) ;
#79 = CARTESIAN_POINT ( 'NONE',  ( -12.50000000000000000, 12.49999999999999600, 1.000000000000000000 ) ) ;
#80 = CALENDAR_DATE ( 2017, 22, 5 ) ;
#81 = VECTOR ( 'NONE', #65, 1000.000000000000000 ) ;
#82 =( GEOMETRIC_REPRESENTATION_CONTEXT ( 3 ) GLOBAL_UNCERTAINTY_ASSIGNED_CONTEXT ( ( #175 ) ) GLOBAL_UNIT_ASSIGNED_CONTEXT ( ( #66, #213, #212 ) ) REPRESENTATION_CONTEXT ( 'NONE', 'WORKASPACE' ) );
#83 = LINE ( 'NONE', #118, #53 ) ;
#84 = DIRECTION ( 'NONE',  ( -0.0000000000000000000, -0.0000000000000000000, -1.000000000000000000 ) ) ;
#85 = DIRECTION ( 'NONE',  ( 1.387778780781445700E-016, -1.000000000000000000, 0.0000000000000000000 ) ) ;
#86 = DIRECTION ( 'NONE',  ( 0.0000000000000000000, 0.0000000000000000000, 1.000000000000000000 ) ) ;
#87 = ORIENTED_EDGE ( 'NONE', *, *, #231, .F. ) ;
#88 = AXIS2_PLACEMENT_3D ( 'NONE', #105, #10, #2 ) ;
#89 = CARTESIAN_POINT ( 'NONE',  ( -12.50000000000000000, 12.49999999999999600, 1.000000000000000000 ) ) ;
#90 = DIRECTION ( 'NONE',  ( 1.387778780781445700E-016, -1.000000000000000000, 0.0000000000000000000 ) ) ;
#91 = DIRECTION ( 'NONE',  ( 1.387778780781445700E-016, -1.000000000000000000, 0.0000000000000000000 ) ) ;
#92 = PERSON_AND_ORGANIZATION_ROLE ( 'design_owner' ) ;
#93 = CARTESIAN_POINT ( 'NONE',  ( 0.0000000000000000000, 0.0000000000000000000, 0.0000000000000000000 ) ) ;
#94 = CARTESIAN_POINT ( 'NONE',  ( -12.50000000000000000, 12.49999999999999600, 1.000000000000000000 ) ) ;
#95 = DIRECTION ( 'NONE',  ( -0.0000000000000000000, -0.0000000000000000000, -1.000000000000000000 ) ) ;
#96 = EDGE_LOOP ( 'NONE', ( #149, #227, #214, #197 ) ) ;
#97 = LINE ( 'NONE', #61, #148 ) ;
#98 = FACE_OUTER_BOUND ( 'NONE', #178, .T. ) ;
#99 = EDGE_LOOP ( 'NONE', ( #190, #180, #87, #154 ) ) ;
#100 = FACE_OUTER_BOUND ( 'NONE', #99, .T. ) ;
#101 = MECHANICAL_CONTEXT ( 'NONE', #191, 'mechanical' ) ;
#102 = APPROVAL_ROLE ( '' ) ;
#103 = FACE_OUTER_BOUND ( 'NONE', #60, .T. ) ;
#104 = ORGANIZATION ( 'UNSPECIFIED', 'UNSPECIFIED', '' ) ;
#105 = CARTESIAN_POINT ( 'NONE',  ( 0.0000000000000000000, 0.0000000000000000000, 1.000000000000000000 ) ) ;
#106 = AXIS2_PLACEMENT_3D ( 'NONE', #222, #51, #85 ) ;
#107 = MANIFOLD_SOLID_BREP ( 'Boss-Extrude1', #217 ) ;
#108 = EDGE_CURVE ( 'NONE', #229, #230, #83, .T. ) ;
#109 = LINE ( 'NONE', #137, #81 ) ;
#110 = DIRECTION ( 'NONE',  ( 1.000000000000000000, 0.0000000000000000000, 0.0000000000000000000 ) ) ;
#111 = VECTOR ( 'NONE', #91, 1000.000000000000000 ) ;
#112 = AXIS2_PLACEMENT_3D ( 'NONE', #132, #198, #186 ) ;
#113 = VECTOR ( 'NONE', #77, 1000.000000000000000 ) ;
#114 = VECTOR ( 'NONE', #165, 1000.000000000000000 ) ;
#115 = VECTOR ( 'NONE', #189, 1000.000000000000000 ) ;
#116 = LINE ( 'NONE', #205, #56 ) ;
#117 = VERTEX_POINT ( 'NONE', #134 ) ;
#118 = CARTESIAN_POINT ( 'NONE',  ( 12.50000000000000000, 12.49999999999999600, 0.0000000000000000000 ) ) ;
#119 = EDGE_CURVE ( 'NONE', #202, #230, #49, .T. ) ;
#120 = VECTOR ( 'NONE', #63, 1000.000000000000000 ) ;
#121 = ADVANCED_FACE ( 'NONE', ( #194 ), #126, .F. ) ;
#122 = CARTESIAN_POINT ( 'NONE',  ( -12.50000000000000000, 12.49999999999999600, 0.0000000000000000000 ) ) ;
#123 = CARTESIAN_POINT ( 'NONE',  ( 12.50000000000000400, -12.50000000000000200, 1.000000000000000000 ) ) ;
#124 = LINE ( 'NONE', #8, #114 ) ;
#125 = FACE_OUTER_BOUND ( 'NONE', #96, .T. ) ;
#126 = PLANE ( 'NONE',  #179 ) ;
#127 = ORIENTED_EDGE ( 'NONE', *, *, #170, .F. ) ;
#128 = APPLICATION_PROTOCOL_DEFINITION ( 'international standard', 'config_control_design', 1994, #191 ) ;
#129 = VECTOR ( 'NONE', #12, 1000.000000000000000 ) ;
#130 = PERSON_AND_ORGANIZATION_ROLE ( 'classification_officer' ) ;
#131 = ORIENTED_EDGE ( 'NONE', *, *, #173, .T. ) ;
#132 = CARTESIAN_POINT ( 'NONE',  ( -12.49999999999999600, -12.50000000000000200, 1.000000000000000000 ) ) ;
#133 = PERSON_AND_ORGANIZATION_ROLE ( 'creator' ) ;
#134 = CARTESIAN_POINT ( 'NONE',  ( -12.50000000000000000, 12.49999999999999600, 0.0000000000000000000 ) ) ;
#135 = ADVANCED_FACE ( 'NONE', ( #125 ), #177, .F. ) ;
#136 = APPROVAL_ROLE ( '' ) ;
#137 = CARTESIAN_POINT ( 'NONE',  ( 12.50000000000000000, 12.49999999999999600, 1.000000000000000000 ) ) ;
#138 = APPROVAL_STATUS ( 'not_yet_approved' ) ;
#139 = DATE_TIME_ROLE ( 'creation_date' ) ;
#140 = PERSON_AND_ORGANIZATION_ROLE ( 'creator' ) ;
#141 = APPROVAL_ROLE ( '' ) ;
#142 = APPROVAL_STATUS ( 'not_yet_approved' ) ;
#143 = CARTESIAN_POINT ( 'NONE',  ( -12.49999999999999600, -12.50000000000000200, 1.000000000000000000 ) ) ;
#144 = LINE ( 'NONE', #1, #129 ) ;
#145 = ORIENTED_EDGE ( 'NONE', *, *, #167, .T. ) ;
#146 = LINE ( 'NONE', #122, #115 ) ;
#147 = PLANE ( 'NONE',  #88 ) ;
#148 = VECTOR ( 'NONE', #188, 1000.000000000000000 ) ;
#149 = ORIENTED_EDGE ( 'NONE', *, *, #181, .T. ) ;
#150 = CALENDAR_DATE ( 2017, 22, 5 ) ;
#151 = APPLICATION_PROTOCOL_DEFINITION ( 'international standard', 'config_control_design', 1994, #152 ) ;
#152 = APPLICATION_CONTEXT ( 'configuration controlled 3d designs of mechanical parts and assemblies' ) ;
#153 = ORIENTED_EDGE ( 'NONE', *, *, #211, .T. ) ;
#154 = ORIENTED_EDGE ( 'NONE', *, *, #207, .T. ) ;
#155 = PERSON_AND_ORGANIZATION ( #218, #104 ) ;
#156 = ORIENTED_EDGE ( 'NONE', *, *, #203, .F. ) ;
#157 = DIRECTION ( 'NONE',  ( 0.0000000000000000000, -0.0000000000000000000, -1.000000000000000000 ) ) ;
#158 = LINE ( 'NONE', #58, #111 ) ;
#159 = DATE_AND_TIME ( #150, #172 ) ;
#160 = CARTESIAN_POINT ( 'NONE',  ( -12.49999999999999600, -12.50000000000000200, 0.0000000000000000000 ) ) ;
#161 = DESIGN_CONTEXT ( 'detailed design', #152, 'design' ) ;
#162 = APPROVAL_PERSON_ORGANIZATION ( #182, #55, #141 ) ;
#163 = EDGE_CURVE ( 'NONE', #210, #47, #224, .T. ) ;
#164 = SECURITY_CLASSIFICATION_LEVEL ( 'unclassified' ) ;
#165 = DIRECTION ( 'NONE',  ( 1.000000000000000000, 0.0000000000000000000, 0.0000000000000000000 ) ) ;
#166 = CARTESIAN_POINT ( 'NONE',  ( -12.49999999999999600, -12.50000000000000200, 1.000000000000000000 ) ) ;
#167 = EDGE_CURVE ( 'NONE', #169, #229, #116, .T. ) ;
#168 = DIRECTION ( 'NONE',  ( 0.0000000000000000000, -1.000000000000000000, 0.0000000000000000000 ) ) ;
#169 = VERTEX_POINT ( 'NONE', #123 ) ;
#170 = EDGE_CURVE ( 'NONE', #230, #117, #146, .T. ) ;
#171 = COORDINATED_UNIVERSAL_TIME_OFFSET ( 7, 0, .BEHIND. ) ;
#172 = LOCAL_TIME ( 13, 26, 38.00000000000000000, #171 ) ;
#173 = EDGE_CURVE ( 'NONE', #210, #169, #144, .T. ) ;
#174 = DATE_AND_TIME ( #80, #37 ) ;
#175 = UNCERTAINTY_MEASURE_WITH_UNIT (LENGTH_MEASURE( 1.000000000000000100E-005 ), #66, 'distance_accuracy_value', 'NONE');
#176 = DATE_TIME_ROLE ( 'classification_date' ) ;
#177 = PLANE ( 'NONE',  #112 ) ;
#178 = EDGE_LOOP ( 'NONE', ( #200, #219, #73, #145 ) ) ;
#179 = AXIS2_PLACEMENT_3D ( 'NONE', #93, #196, #110 ) ;
#180 = ORIENTED_EDGE ( 'NONE', *, *, #163, .F. ) ;
#181 = EDGE_CURVE ( 'NONE', #47, #229, #124, .T. ) ;
#182 = PERSON_AND_ORGANIZATION ( #218, #104 ) ;
#183 = VECTOR ( 'NONE', #90, 1000.000000000000000 ) ;
#184 = ADVANCED_FACE ( 'NONE', ( #103 ), #147, .T. ) ;
#185 = CARTESIAN_POINT ( 'NONE',  ( 12.50000000000000000, 12.49999999999999600, 1.000000000000000000 ) ) ;
#186 = DIRECTION ( 'NONE',  ( 0.0000000000000000000, -0.0000000000000000000, 1.000000000000000000 ) ) ;
#187 = ADVANCED_FACE ( 'NONE', ( #98 ), #41, .F. ) ;
#188 = DIRECTION ( 'NONE',  ( -1.000000000000000000, -0.0000000000000000000, -0.0000000000000000000 ) ) ;
#189 = DIRECTION ( 'NONE',  ( -1.000000000000000000, -0.0000000000000000000, -0.0000000000000000000 ) ) ;
#190 = ORIENTED_EDGE ( 'NONE', *, *, #203, .T. ) ;
#191 = APPLICATION_CONTEXT ( 'configuration controlled 3d designs of mechanical parts and assemblies' ) ;
#192 = ADVANCED_FACE ( 'NONE', ( #100 ), #39, .F. ) ;
#193 = COORDINATED_UNIVERSAL_TIME_OFFSET ( 7, 0, .BEHIND. ) ;
#194 = FACE_OUTER_BOUND ( 'NONE', #195, .T. ) ;
#195 = EDGE_LOOP ( 'NONE', ( #156, #127, #234, #208 ) ) ;
#196 = DIRECTION ( 'NONE',  ( -0.0000000000000000000, 0.0000000000000000000, 1.000000000000000000 ) ) ;
#197 = ORIENTED_EDGE ( 'NONE', *, *, #163, .T. ) ;
#198 = DIRECTION ( 'NONE',  ( 0.0000000000000000000, 1.000000000000000000, 0.0000000000000000000 ) ) ;
#199 = PRODUCT ( 'step_35952', 'step_35952', '', ( #101 ) ) ;
#200 = ORIENTED_EDGE ( 'NONE', *, *, #108, .T. ) ;
#201 = PERSON_AND_ORGANIZATION ( #218, #104 ) ;
#202 = VERTEX_POINT ( 'NONE', #28 ) ;
#203 = EDGE_CURVE ( 'NONE', #117, #47, #158, .T. ) ;
#204 = CARTESIAN_POINT ( 'NONE',  ( 12.50000000000000000, 12.49999999999999600, 0.0000000000000000000 ) ) ;
#205 = CARTESIAN_POINT ( 'NONE',  ( 12.50000000000000400, -12.50000000000000200, 1.000000000000000000 ) ) ;
#206 = EDGE_LOOP ( 'NONE', ( #220, #54, #226, #236 ) ) ;
#207 = EDGE_CURVE ( 'NONE', #232, #117, #69, .T. ) ;
#208 = ORIENTED_EDGE ( 'NONE', *, *, #181, .F. ) ;
#209 = ORIENTED_EDGE ( 'NONE', *, *, #231, .T. ) ;
#210 = VERTEX_POINT ( 'NONE', #143 ) ;
#211 = EDGE_CURVE ( 'NONE', #202, #232, #97, .T. ) ;
#212 =( NAMED_UNIT ( * ) SI_UNIT ( $, .STERADIAN. ) SOLID_ANGLE_UNIT ( ) );
#213 =( NAMED_UNIT ( * ) PLANE_ANGLE_UNIT ( ) SI_UNIT ( $, .RADIAN. ) );
#214 = ORIENTED_EDGE ( 'NONE', *, *, #173, .F. ) ;
#215 = PRODUCT_DEFINITION_SHAPE ( 'NONE', 'NONE',  #57 ) ;
#216 = EDGE_CURVE ( 'NONE', #169, #202, #109, .T. ) ;
#217 = CLOSED_SHELL ( 'NONE', ( #192, #135, #187, #30, #184, #121 ) ) ;
#218 = PERSON ( 'UNSPECIFIED', 'UNSPECIFIED', 'UNSPECIFIED', ('UNSPECIFIED'), ('UNSPECIFIED'), ('UNSPECIFIED') ) ;
#219 = ORIENTED_EDGE ( 'NONE', *, *, #119, .F. ) ;
#220 = ORIENTED_EDGE ( 'NONE', *, *, #170, .T. ) ;
#221 = CARTESIAN_POINT ( 'NONE',  ( 0.0000000000000000000, 0.0000000000000000000, 0.0000000000000000000 ) ) ;
#222 = CARTESIAN_POINT ( 'NONE',  ( 12.50000000000000000, 12.49999999999999600, 1.000000000000000000 ) ) ;
#223 = CARTESIAN_POINT ( 'NONE',  ( 12.50000000000000400, -12.50000000000000200, 0.0000000000000000000 ) ) ;
#224 = LINE ( 'NONE', #166, #113 ) ;
#225 = ADVANCED_BREP_SHAPE_REPRESENTATION ( 'step_35952', ( #107, #62 ), #82 ) ;
#226 = ORIENTED_EDGE ( 'NONE', *, *, #211, .F. ) ;
#227 = ORIENTED_EDGE ( 'NONE', *, *, #167, .F. ) ;
#228 = ORIENTED_EDGE ( 'NONE', *, *, #216, .T. ) ;
#229 = VERTEX_POINT ( 'NONE', #223 ) ;
#230 = VERTEX_POINT ( 'NONE', #204 ) ;
#231 = EDGE_CURVE ( 'NONE', #232, #210, #64, .T. ) ;
#232 = VERTEX_POINT ( 'NONE', #72 ) ;
#233 = PERSON_AND_ORGANIZATION_ROLE ( 'design_supplier' ) ;
#234 = ORIENTED_EDGE ( 'NONE', *, *, #108, .F. ) ;
#235 = VECTOR ( 'NONE', #95, 1000.000000000000000 ) ;
#236 = ORIENTED_EDGE ( 'NONE', *, *, #119, .T. ) ;
#237 = AXIS2_PLACEMENT_3D ( 'NONE', #79, #168, #157 ) ;
ENDSEC;
END-ISO-10303-21;
