ISO-10303-21;
HEADER;
FILE_DESCRIPTION (( 'STEP AP203' ),
    '1' );
FILE_NAME ('Web Model 68380.STEP',
    '2017-01-31T19:52:16',
    ( '' ),
    ( '' ),
    'SwSTEP 2.0',
    'SolidWorks 2016',
    '' );
FILE_SCHEMA (( 'CONFIG_CONTROL_DESIGN' ));
ENDSEC;

DATA;
#1 = PERSON_AND_ORGANIZATION ( #109, #188 ) ;
#2 = AXIS2_PLACEMENT_3D ( 'NONE', #191, #192, #78 ) ;
#3 = APPROVAL_PERSON_ORGANIZATION ( #44, #65, #61 ) ;
#4 = FACE_OUTER_BOUND ( 'NONE', #38, .T. ) ;
#5 = SHAPE_DEFINITION_REPRESENTATION ( #200, #230 ) ;
#6 = AXIS2_PLACEMENT_3D ( 'NONE', #55, #214, #212 ) ;
#7 = PLANE ( 'NONE',  #205 ) ;
#8 = VECTOR ( 'NONE', #115, 1000.000000000000000 ) ;
#9 = VERTEX_POINT ( 'NONE', #110 ) ;
#10 = CARTESIAN_POINT ( 'NONE',  ( 37.50000000000000000, -37.49999999999999300, 3.000000000000000000 ) ) ;
#11 = CARTESIAN_POINT ( 'NONE',  ( -37.50000000000000000, -37.50000000000000700, 0.0000000000000000000 ) ) ;
#12 = PLANE ( 'NONE',  #216 ) ;
#13 = EDGE_CURVE ( 'NONE', #18, #218, #221, .T. ) ;
#14 =( NAMED_UNIT ( * ) PLANE_ANGLE_UNIT ( ) SI_UNIT ( $, .RADIAN. ) );
#15 = DESIGN_CONTEXT ( 'detailed design', #102, 'design' ) ;
#16 = CARTESIAN_POINT ( 'NONE',  ( 37.50000000000000000, -37.49999999999999300, 0.0000000000000000000 ) ) ;
#17 = LOCAL_TIME ( 14, 52, 16.00000000000000000, #85 ) ;
#18 = VERTEX_POINT ( 'NONE', #147 ) ;
#19 = ADVANCED_FACE ( 'NONE', ( #23 ), #108, .F. ) ;
#20 = DIRECTION ( 'NONE',  ( -1.000000000000000000, 0.0000000000000000000, 0.0000000000000000000 ) ) ;
#21 = CC_DESIGN_APPROVAL ( #65, ( #217 ) ) ;
#22 = ADVANCED_FACE ( 'NONE', ( #215 ), #12, .F. ) ;
#23 = FACE_OUTER_BOUND ( 'NONE', #184, .T. ) ;
#24 = DATE_TIME_ROLE ( 'classification_date' ) ;
#25 = COORDINATED_UNIVERSAL_TIME_OFFSET ( 5, 0, .BEHIND. ) ;
#26 = ORIENTED_EDGE ( 'NONE', *, *, #43, .T. ) ;
#27 = CALENDAR_DATE ( 2017, 31, 1 ) ;
#28 = CC_DESIGN_SECURITY_CLASSIFICATION ( #199, ( #217 ) ) ;
#29 = FACE_OUTER_BOUND ( 'NONE', #103, .T. ) ;
#30 = DIRECTION ( 'NONE',  ( -0.0000000000000000000, -0.0000000000000000000, -1.000000000000000000 ) ) ;
#31 = ORIENTED_EDGE ( 'NONE', *, *, #82, .T. ) ;
#32 = CC_DESIGN_PERSON_AND_ORGANIZATION_ASSIGNMENT ( #48, #141, ( #217 ) ) ;
#33 = ORIENTED_EDGE ( 'NONE', *, *, #172, .F. ) ;
#34 = CARTESIAN_POINT ( 'NONE',  ( -37.50000000000000700, 37.49999999999999300, 3.000000000000000000 ) ) ;
#35 = ADVANCED_FACE ( 'NONE', ( #4 ), #7, .F. ) ;
#36 = LINE ( 'NONE', #52, #159 ) ;
#37 = PERSON_AND_ORGANIZATION ( #109, #188 ) ;
#38 = EDGE_LOOP ( 'NONE', ( #45, #228, #130, #207 ) ) ;
#39 = PLANE ( 'NONE',  #190 ) ;
#40 = CC_DESIGN_DATE_AND_TIME_ASSIGNMENT ( #203, #84, ( #144 ) ) ;
#41 = CARTESIAN_POINT ( 'NONE',  ( 37.50000000000000000, 37.49999999999999300, 3.000000000000000000 ) ) ;
#42 = PLANE ( 'NONE',  #2 ) ;
#43 = EDGE_CURVE ( 'NONE', #198, #218, #163, .T. ) ;
#44 = PERSON_AND_ORGANIZATION ( #109, #188 ) ;
#45 = ORIENTED_EDGE ( 'NONE', *, *, #175, .T. ) ;
#46 = CC_DESIGN_PERSON_AND_ORGANIZATION_ASSIGNMENT ( #116, #196, ( #217 ) ) ;
#47 = APPLICATION_PROTOCOL_DEFINITION ( 'international standard', 'config_control_design', 1994, #102 ) ;
#48 = PERSON_AND_ORGANIZATION ( #109, #188 ) ;
#49 = LINE ( 'NONE', #58, #153 ) ;
#50 = VERTEX_POINT ( 'NONE', #165 ) ;
#51 = ORIENTED_EDGE ( 'NONE', *, *, #164, .T. ) ;
#52 = CARTESIAN_POINT ( 'NONE',  ( 37.50000000000000000, -37.49999999999999300, 3.000000000000000000 ) ) ;
#53 = ORIENTED_EDGE ( 'NONE', *, *, #13, .F. ) ;
#54 = DIRECTION ( 'NONE',  ( 0.0000000000000000000, 0.0000000000000000000, -1.000000000000000000 ) ) ;
#55 = CARTESIAN_POINT ( 'NONE',  ( -37.50000000000000700, 37.49999999999999300, 3.000000000000000000 ) ) ;
#56 = CALENDAR_DATE ( 2017, 31, 1 ) ;
#57 = CLOSED_SHELL ( 'NONE', ( #211, #19, #22, #237, #35, #73 ) ) ;
#58 = CARTESIAN_POINT ( 'NONE',  ( 37.50000000000000000, 37.49999999999999300, 0.0000000000000000000 ) ) ;
#59 = EDGE_CURVE ( 'NONE', #68, #50, #36, .T. ) ;
#60 = MECHANICAL_CONTEXT ( 'NONE', #219, 'mechanical' ) ;
#61 = APPROVAL_ROLE ( '' ) ;
#62 = VECTOR ( 'NONE', #95, 1000.000000000000000 ) ;
#63 = PERSON_AND_ORGANIZATION_ROLE ( 'creator' ) ;
#64 = DIRECTION ( 'NONE',  ( 1.000000000000000000, 0.0000000000000000000, 0.0000000000000000000 ) ) ;
#65 = APPROVAL ( #195, 'UNSPECIFIED' ) ;
#66 = ORIENTED_EDGE ( 'NONE', *, *, #181, .T. ) ;
#67 = FACE_OUTER_BOUND ( 'NONE', #167, .T. ) ;
#68 = VERTEX_POINT ( 'NONE', #10 ) ;
#69 = DIRECTION ( 'NONE',  ( 0.0000000000000000000, 0.0000000000000000000, -1.000000000000000000 ) ) ;
#70 = ORIENTED_EDGE ( 'NONE', *, *, #113, .F. ) ;
#71 = CARTESIAN_POINT ( 'NONE',  ( -37.50000000000000700, 37.49999999999999300, 0.0000000000000000000 ) ) ;
#72 = DIRECTION ( 'NONE',  ( -0.0000000000000000000, 1.000000000000000000, -0.0000000000000000000 ) ) ;
#73 = ADVANCED_FACE ( 'NONE', ( #29 ), #39, .T. ) ;
#74 = LINE ( 'NONE', #16, #166 ) ;
#75 = DIRECTION ( 'NONE',  ( 1.000000000000000000, 1.850371707708594300E-016, -0.0000000000000000000 ) ) ;
#76 = CARTESIAN_POINT ( 'NONE',  ( 37.50000000000000000, -37.49999999999999300, 3.000000000000000000 ) ) ;
#77 = PRODUCT_RELATED_PRODUCT_CATEGORY ( 'detail', '', ( #125 ) ) ;
#78 = DIRECTION ( 'NONE',  ( 0.0000000000000000000, -0.0000000000000000000, -1.000000000000000000 ) ) ;
#79 = LINE ( 'NONE', #96, #148 ) ;
#80 = VERTEX_POINT ( 'NONE', #128 ) ;
#81 = APPROVAL_STATUS ( 'not_yet_approved' ) ;
#82 = EDGE_CURVE ( 'NONE', #80, #9, #209, .T. ) ;
#83 = PERSON_AND_ORGANIZATION_ROLE ( 'classification_officer' ) ;
#84 = DATE_TIME_ROLE ( 'creation_date' ) ;
#85 = COORDINATED_UNIVERSAL_TIME_OFFSET ( 5, 0, .BEHIND. ) ;
#86 = LINE ( 'NONE', #152, #99 ) ;
#87 = ORIENTED_EDGE ( 'NONE', *, *, #43, .F. ) ;
#88 = PERSON_AND_ORGANIZATION ( #109, #188 ) ;
#89 = CALENDAR_DATE ( 2017, 31, 1 ) ;
#90 = DIRECTION ( 'NONE',  ( -1.000000000000000000, 0.0000000000000000000, -0.0000000000000000000 ) ) ;
#91 = CARTESIAN_POINT ( 'NONE',  ( 37.50000000000000000, -37.49999999999999300, 3.000000000000000000 ) ) ;
#92 = PERSON_AND_ORGANIZATION ( #109, #188 ) ;
#93 = ORIENTED_EDGE ( 'NONE', *, *, #59, .F. ) ;
#94 = DIRECTION ( 'NONE',  ( 0.0000000000000000000, 0.0000000000000000000, 1.000000000000000000 ) ) ;
#95 = DIRECTION ( 'NONE',  ( 9.251858538542971600E-017, -1.000000000000000000, 0.0000000000000000000 ) ) ;
#96 = CARTESIAN_POINT ( 'NONE',  ( 37.50000000000000000, 37.49999999999999300, 0.0000000000000000000 ) ) ;
#97 =( LENGTH_UNIT ( ) NAMED_UNIT ( * ) SI_UNIT ( .MILLI., .METRE. ) );
#98 = CARTESIAN_POINT ( 'NONE',  ( -37.50000000000000000, -37.50000000000000700, 3.000000000000000000 ) ) ;
#99 = VECTOR ( 'NONE', #168, 1000.000000000000000 ) ;
#100 = EDGE_CURVE ( 'NONE', #198, #68, #121, .T. ) ;
#101 = DIRECTION ( 'NONE',  ( 0.0000000000000000000, 0.0000000000000000000, 1.000000000000000000 ) ) ;
#102 = APPLICATION_CONTEXT ( 'configuration controlled 3d designs of mechanical parts and assemblies' ) ;
#103 = EDGE_LOOP ( 'NONE', ( #53, #139, #70, #149 ) ) ;
#104 = DATE_AND_TIME ( #208, #123 ) ;
#105 = ORIENTED_EDGE ( 'NONE', *, *, #113, .T. ) ;
#106 = CC_DESIGN_DATE_AND_TIME_ASSIGNMENT ( #177, #24, ( #199 ) ) ;
#107 = CARTESIAN_POINT ( 'NONE',  ( 37.50000000000000000, 37.49999999999999300, 3.000000000000000000 ) ) ;
#108 = PLANE ( 'NONE',  #236 ) ;
#109 = PERSON ( 'UNSPECIFIED', 'UNSPECIFIED', 'UNSPECIFIED', ('UNSPECIFIED'), ('UNSPECIFIED'), ('UNSPECIFIED') ) ;
#110 = CARTESIAN_POINT ( 'NONE',  ( 37.50000000000000000, 37.49999999999999300, 0.0000000000000000000 ) ) ;
#111 = UNCERTAINTY_MEASURE_WITH_UNIT (LENGTH_MEASURE( 1.000000000000000100E-005 ), #97, 'distance_accuracy_value', 'NONE');
#112 = CARTESIAN_POINT ( 'NONE',  ( -37.50000000000000700, 37.49999999999999300, 3.000000000000000000 ) ) ;
#113 = EDGE_CURVE ( 'NONE', #50, #9, #79, .T. ) ;
#114 = VECTOR ( 'NONE', #127, 1000.000000000000000 ) ;
#115 = DIRECTION ( 'NONE',  ( 9.251858538542971600E-017, -1.000000000000000000, 0.0000000000000000000 ) ) ;
#116 = PERSON_AND_ORGANIZATION ( #109, #188 ) ;
#117 = ORIENTED_EDGE ( 'NONE', *, *, #59, .T. ) ;
#118 = APPLICATION_PROTOCOL_DEFINITION ( 'international standard', 'config_control_design', 1994, #219 ) ;
#119 = LOCAL_TIME ( 14, 52, 16.00000000000000000, #160 ) ;
#120 = LOCAL_TIME ( 14, 52, 16.00000000000000000, #220 ) ;
#121 = LINE ( 'NONE', #76, #146 ) ;
#122 = ORIENTED_EDGE ( 'NONE', *, *, #126, .T. ) ;
#123 = LOCAL_TIME ( 14, 52, 16.00000000000000000, #25 ) ;
#124 = VECTOR ( 'NONE', #134, 1000.000000000000000 ) ;
#125 = PRODUCT ( 'Web Model 68380', 'Web Model 68380', '', ( #60 ) ) ;
#126 = EDGE_CURVE ( 'NONE', #235, #18, #86, .T. ) ;
#127 = DIRECTION ( 'NONE',  ( -0.0000000000000000000, -0.0000000000000000000, -1.000000000000000000 ) ) ;
#128 = CARTESIAN_POINT ( 'NONE',  ( 37.50000000000000000, 37.49999999999999300, 3.000000000000000000 ) ) ;
#129 = CALENDAR_DATE ( 2017, 31, 1 ) ;
#130 = ORIENTED_EDGE ( 'NONE', *, *, #172, .T. ) ;
#131 = MANIFOLD_SOLID_BREP ( 'Extrude1', #57 ) ;
#132 = DIRECTION ( 'NONE',  ( -1.850371707708594100E-016, 1.000000000000000000, 0.0000000000000000000 ) ) ;
#133 = APPROVAL ( #81, 'UNSPECIFIED' ) ;
#134 = DIRECTION ( 'NONE',  ( -1.000000000000000000, 0.0000000000000000000, 0.0000000000000000000 ) ) ;
#135 = CARTESIAN_POINT ( 'NONE',  ( 37.50000000000000000, 37.49999999999999300, 3.000000000000000000 ) ) ;
#136 = DIRECTION ( 'NONE',  ( 1.000000000000000000, 1.850371707708594300E-016, -0.0000000000000000000 ) ) ;
#137 = PLANE ( 'NONE',  #6 ) ;
#138 = LOCAL_TIME ( 14, 52, 16.00000000000000000, #183 ) ;
#139 = ORIENTED_EDGE ( 'NONE', *, *, #164, .F. ) ;
#140 = PERSON_AND_ORGANIZATION ( #109, #188 ) ;
#141 = PERSON_AND_ORGANIZATION_ROLE ( 'design_supplier' ) ;
#142 = APPROVAL_PERSON_ORGANIZATION ( #1, #229, #176 ) ;
#143 = PERSON_AND_ORGANIZATION_ROLE ( 'design_owner' ) ;
#144 = PRODUCT_DEFINITION ( 'UNKNOWN', '', #217, #15 ) ;
#145 = ORIENTED_EDGE ( 'NONE', *, *, #126, .F. ) ;
#146 = VECTOR ( 'NONE', #75, 1000.000000000000000 ) ;
#147 = CARTESIAN_POINT ( 'NONE',  ( -37.50000000000000700, 37.49999999999999300, 0.0000000000000000000 ) ) ;
#148 = VECTOR ( 'NONE', #155, 1000.000000000000000 ) ;
#149 = ORIENTED_EDGE ( 'NONE', *, *, #181, .F. ) ;
#150 = CC_DESIGN_PERSON_AND_ORGANIZATION_ASSIGNMENT ( #37, #143, ( #125 ) ) ;
#151 = APPROVAL_PERSON_ORGANIZATION ( #88, #133, #156 ) ;
#152 = CARTESIAN_POINT ( 'NONE',  ( -37.50000000000000700, 37.49999999999999300, 3.000000000000000000 ) ) ;
#153 = VECTOR ( 'NONE', #20, 1000.000000000000000 ) ;
#154 = ORIENTED_EDGE ( 'NONE', *, *, #186, .F. ) ;
#155 = DIRECTION ( 'NONE',  ( -0.0000000000000000000, 1.000000000000000000, -0.0000000000000000000 ) ) ;
#156 = APPROVAL_ROLE ( '' ) ;
#157 = VECTOR ( 'NONE', #189, 1000.000000000000000 ) ;
#158 = AXIS2_PLACEMENT_3D ( 'NONE', #173, #101, #64 ) ;
#159 = VECTOR ( 'NONE', #30, 1000.000000000000000 ) ;
#160 = COORDINATED_UNIVERSAL_TIME_OFFSET ( 5, 0, .BEHIND. ) ;
#161 = ORIENTED_EDGE ( 'NONE', *, *, #82, .F. ) ;
#162 = APPROVAL_DATE_TIME ( #104, #133 ) ;
#163 = LINE ( 'NONE', #226, #114 ) ;
#164 = EDGE_CURVE ( 'NONE', #9, #18, #49, .T. ) ;
#165 = CARTESIAN_POINT ( 'NONE',  ( 37.50000000000000000, -37.49999999999999300, 0.0000000000000000000 ) ) ;
#166 = VECTOR ( 'NONE', #136, 1000.000000000000000 ) ;
#167 = EDGE_LOOP ( 'NONE', ( #180, #87, #170, #122 ) ) ;
#168 = DIRECTION ( 'NONE',  ( -0.0000000000000000000, -0.0000000000000000000, -1.000000000000000000 ) ) ;
#169 = FACE_OUTER_BOUND ( 'NONE', #194, .T. ) ;
#170 = ORIENTED_EDGE ( 'NONE', *, *, #175, .F. ) ;
#171 = CARTESIAN_POINT ( 'NONE',  ( 37.50000000000000000, 37.49999999999999300, 3.000000000000000000 ) ) ;
#172 = EDGE_CURVE ( 'NONE', #68, #80, #233, .T. ) ;
#173 = CARTESIAN_POINT ( 'NONE',  ( 0.0000000000000000000, 0.0000000000000000000, 0.0000000000000000000 ) ) ;
#174 = ORIENTED_EDGE ( 'NONE', *, *, #100, .F. ) ;
#175 = EDGE_CURVE ( 'NONE', #235, #198, #213, .T. ) ;
#176 = APPROVAL_ROLE ( '' ) ;
#177 = DATE_AND_TIME ( #56, #119 ) ;
#178 =( NAMED_UNIT ( * ) SI_UNIT ( $, .STERADIAN. ) SOLID_ANGLE_UNIT ( ) );
#179 = APPROVAL_DATE_TIME ( #223, #229 ) ;
#180 = ORIENTED_EDGE ( 'NONE', *, *, #13, .T. ) ;
#181 = EDGE_CURVE ( 'NONE', #218, #50, #74, .T. ) ;
#182 = DIRECTION ( 'NONE',  ( -1.000000000000000000, -1.850371707708594100E-016, 0.0000000000000000000 ) ) ;
#183 = COORDINATED_UNIVERSAL_TIME_OFFSET ( 5, 0, .BEHIND. ) ;
#184 = EDGE_LOOP ( 'NONE', ( #66, #93, #174, #26 ) ) ;
#185 = CC_DESIGN_APPROVAL ( #229, ( #144 ) ) ;
#186 = EDGE_CURVE ( 'NONE', #80, #235, #193, .T. ) ;
#187 = DIRECTION ( 'NONE',  ( -1.000000000000000000, 0.0000000000000000000, 0.0000000000000000000 ) ) ;
#188 = ORGANIZATION ( 'UNSPECIFIED', 'UNSPECIFIED', '' ) ;
#189 = DIRECTION ( 'NONE',  ( -0.0000000000000000000, -0.0000000000000000000, -1.000000000000000000 ) ) ;
#190 = AXIS2_PLACEMENT_3D ( 'NONE', #11, #54, #210 ) ;
#191 = CARTESIAN_POINT ( 'NONE',  ( 37.50000000000000000, 37.49999999999999300, 3.000000000000000000 ) ) ;
#192 = DIRECTION ( 'NONE',  ( 0.0000000000000000000, -1.000000000000000000, 0.0000000000000000000 ) ) ;
#193 = LINE ( 'NONE', #135, #124 ) ;
#194 = EDGE_LOOP ( 'NONE', ( #51, #145, #154, #31 ) ) ;
#195 = APPROVAL_STATUS ( 'not_yet_approved' ) ;
#196 = PERSON_AND_ORGANIZATION_ROLE ( 'creator' ) ;
#197 = SECURITY_CLASSIFICATION_LEVEL ( 'unclassified' ) ;
#198 = VERTEX_POINT ( 'NONE', #98 ) ;
#199 = SECURITY_CLASSIFICATION ( '', '', #197 ) ;
#200 = PRODUCT_DEFINITION_SHAPE ( 'NONE', 'NONE',  #144 ) ;
#201 = CC_DESIGN_PERSON_AND_ORGANIZATION_ASSIGNMENT ( #140, #83, ( #199 ) ) ;
#202 = APPROVAL_DATE_TIME ( #227, #65 ) ;
#203 = DATE_AND_TIME ( #27, #120 ) ;
#204 = CC_DESIGN_PERSON_AND_ORGANIZATION_ASSIGNMENT ( #92, #63, ( #144 ) ) ;
#205 = AXIS2_PLACEMENT_3D ( 'NONE', #206, #69, #90 ) ;
#206 = CARTESIAN_POINT ( 'NONE',  ( -37.50000000000000000, -37.50000000000000700, 3.000000000000000000 ) ) ;
#207 = ORIENTED_EDGE ( 'NONE', *, *, #186, .T. ) ;
#208 = CALENDAR_DATE ( 2017, 31, 1 ) ;
#209 = LINE ( 'NONE', #107, #157 ) ;
#210 = DIRECTION ( 'NONE',  ( -1.000000000000000000, 0.0000000000000000000, -0.0000000000000000000 ) ) ;
#211 = ADVANCED_FACE ( 'NONE', ( #67 ), #137, .F. ) ;
#212 = DIRECTION ( 'NONE',  ( -9.251858538542970300E-017, 1.000000000000000000, 0.0000000000000000000 ) ) ;
#213 = LINE ( 'NONE', #112, #8 ) ;
#214 = DIRECTION ( 'NONE',  ( 1.000000000000000000, 9.251858538542970300E-017, -0.0000000000000000000 ) ) ;
#215 = FACE_OUTER_BOUND ( 'NONE', #222, .T. ) ;
#216 = AXIS2_PLACEMENT_3D ( 'NONE', #41, #187, #94 ) ;
#217 = PRODUCT_DEFINITION_FORMATION_WITH_SPECIFIED_SOURCE ( 'ANY', '', #125, .NOT_KNOWN. ) ;
#218 = VERTEX_POINT ( 'NONE', #232 ) ;
#219 = APPLICATION_CONTEXT ( 'configuration controlled 3d designs of mechanical parts and assemblies' ) ;
#220 = COORDINATED_UNIVERSAL_TIME_OFFSET ( 5, 0, .BEHIND. ) ;
#221 = LINE ( 'NONE', #71, #62 ) ;
#222 = EDGE_LOOP ( 'NONE', ( #105, #161, #33, #117 ) ) ;
#223 = DATE_AND_TIME ( #89, #17 ) ;
#224 = CC_DESIGN_APPROVAL ( #133, ( #199 ) ) ;
#225 =( GEOMETRIC_REPRESENTATION_CONTEXT ( 3 ) GLOBAL_UNCERTAINTY_ASSIGNED_CONTEXT ( ( #111 ) ) GLOBAL_UNIT_ASSIGNED_CONTEXT ( ( #97, #14, #178 ) ) REPRESENTATION_CONTEXT ( 'NONE', 'WORKASPACE' ) );
#226 = CARTESIAN_POINT ( 'NONE',  ( -37.50000000000000000, -37.50000000000000700, 3.000000000000000000 ) ) ;
#227 = DATE_AND_TIME ( #129, #138 ) ;
#228 = ORIENTED_EDGE ( 'NONE', *, *, #100, .T. ) ;
#229 = APPROVAL ( #234, 'UNSPECIFIED' ) ;
#230 = ADVANCED_BREP_SHAPE_REPRESENTATION ( 'Web Model 68380', ( #131, #158 ), #225 ) ;
#231 = VECTOR ( 'NONE', #72, 1000.000000000000000 ) ;
#232 = CARTESIAN_POINT ( 'NONE',  ( -37.50000000000000000, -37.50000000000000700, 0.0000000000000000000 ) ) ;
#233 = LINE ( 'NONE', #171, #231 ) ;
#234 = APPROVAL_STATUS ( 'not_yet_approved' ) ;
#235 = VERTEX_POINT ( 'NONE', #34 ) ;
#236 = AXIS2_PLACEMENT_3D ( 'NONE', #91, #132, #182 ) ;
#237 = ADVANCED_FACE ( 'NONE', ( #169 ), #42, .F. ) ;
ENDSEC;
END-ISO-10303-21;
