ISO-10303-21;
HEADER;
FILE_DESCRIPTION (( 'STEP AP203' ),
    '1' );
FILE_NAME ('Web Model 19307_19307.step',
    '2021-08-23T19:35:39',
    ( '' ),
    ( '' ),
    'SwSTEP 2.0',
    'SolidWorks 2018',
    '' );
FILE_SCHEMA (( 'CONFIG_CONTROL_DESIGN' ));
ENDSEC;

DATA;
#1 = EDGE_LOOP ( 'NONE', ( #394, #141 ) ) ;
#2 = DIRECTION ( 'NONE',  ( 1.000000000000000000, 0.000000000000000000, -0.000000000000000000 ) ) ;
#3 = FACE_OUTER_BOUND ( 'NONE', #203, .T. ) ;
#4 = DIRECTION ( 'NONE',  ( 0.000000000000000000, 0.000000000000000000, 1.000000000000000000 ) ) ;
#5 = DIRECTION ( 'NONE',  ( -1.000000000000000000, 0.000000000000000000, 0.000000000000000000 ) ) ;
#6 = PLANE ( 'NONE',  #191 ) ;
#7 = PRODUCT_DEFINITION_FORMATION_WITH_SPECIFIED_SOURCE ( 'ANY', '', #49, .NOT_KNOWN. ) ;
#8 = APPROVAL_STATUS ( 'not_yet_approved' ) ;
#9 = EDGE_CURVE ( 'NONE', #327, #352, #121, .T. ) ;
#10 = SHAPE_DEFINITION_REPRESENTATION ( #372, #301 ) ;
#11 = VERTEX_POINT ( 'NONE', #415 ) ;
#12 = DATE_AND_TIME ( #345, #21 ) ;
#13 = FACE_OUTER_BOUND ( 'NONE', #42, .T. ) ;
#14 = CARTESIAN_POINT ( 'NONE',  ( 7.940000000000001279, 0.000000000000000000, 3.180000000000000160 ) ) ;
#15 = EDGE_CURVE ( 'NONE', #11, #72, #391, .T. ) ;
#16 = DIRECTION ( 'NONE',  ( -0.000000000000000000, -0.000000000000000000, -1.000000000000000000 ) ) ;
#17 = DATE_AND_TIME ( #153, #275 ) ;
#18 = ORIENTED_EDGE ( 'NONE', *, *, #304, .F. ) ;
#19 = SECURITY_CLASSIFICATION ( '', '', #176 ) ;
#20 = FACE_OUTER_BOUND ( 'NONE', #207, .T. ) ;
#21 = LOCAL_TIME ( 15, 35, 39.00000000000000000, #209 ) ;
#22 = AXIS2_PLACEMENT_3D ( 'NONE', #297, #171, #5 ) ;
#23 = VECTOR ( 'NONE', #196, 1000.000000000000000 ) ;
#24 = DIRECTION ( 'NONE',  ( 0.000000000000000000, 0.000000000000000000, 1.000000000000000000 ) ) ;
#25 = DIRECTION ( 'NONE',  ( 0.000000000000000000, 0.000000000000000000, 1.000000000000000000 ) ) ;
#26 = AXIS2_PLACEMENT_3D ( 'NONE', #384, #32, #2 ) ;
#27 = DIRECTION ( 'NONE',  ( 1.000000000000000000, 0.000000000000000000, 0.000000000000000000 ) ) ;
#28 = DIRECTION ( 'NONE',  ( 0.000000000000000000, 0.000000000000000000, 1.000000000000000000 ) ) ;
#29 = ORIENTED_EDGE ( 'NONE', *, *, #304, .T. ) ;
#30 = CARTESIAN_POINT ( 'NONE',  ( 7.393900000000000361, 0.000000000000000000, 3.180000000000000160 ) ) ;
#31 = LINE ( 'NONE', #103, #79 ) ;
#32 = DIRECTION ( 'NONE',  ( 0.000000000000000000, 0.000000000000000000, 1.000000000000000000 ) ) ;
#33 = CARTESIAN_POINT ( 'NONE',  ( 7.393900000000000361, 0.000000000000000000, 0.000000000000000000 ) ) ;
#34 = CARTESIAN_POINT ( 'NONE',  ( 7.393900000000000361, 0.000000000000000000, 3.180000000000000160 ) ) ;
#35 = AXIS2_PLACEMENT_3D ( 'NONE', #244, #28, #62 ) ;
#36 = CARTESIAN_POINT ( 'NONE',  ( 0.000000000000000000, 0.000000000000000000, 0.000000000000000000 ) ) ;
#37 = ORIENTED_EDGE ( 'NONE', *, *, #90, .F. ) ;
#38 = EDGE_CURVE ( 'NONE', #373, #154, #56, .T. ) ;
#39 = FACE_OUTER_BOUND ( 'NONE', #1, .T. ) ;
#40 = DATE_AND_TIME ( #130, #287 ) ;
#41 = ORIENTED_EDGE ( 'NONE', *, *, #328, .F. ) ;
#42 = EDGE_LOOP ( 'NONE', ( #47, #162 ) ) ;
#43 = DIRECTION ( 'NONE',  ( 0.000000000000000000, 0.000000000000000000, 1.000000000000000000 ) ) ;
#44 = DIRECTION ( 'NONE',  ( 0.000000000000000000, 0.000000000000000000, 1.000000000000000000 ) ) ;
#45 = EDGE_CURVE ( 'NONE', #380, #101, #104, .T. ) ;
#46 = DIRECTION ( 'NONE',  ( 1.000000000000000000, 0.000000000000000000, 0.000000000000000000 ) ) ;
#47 = ORIENTED_EDGE ( 'NONE', *, *, #256, .T. ) ;
#48 = CALENDAR_DATE ( 2021, 23, 8 ) ;
#49 = PRODUCT ( 'Web Model 19307_19307', 'Web Model 19307_19307', '', ( #86 ) ) ;
#50 = APPROVAL_STATUS ( 'not_yet_approved' ) ;
#51 = AXIS2_PLACEMENT_3D ( 'NONE', #166, #383, #329 ) ;
#52 =( LENGTH_UNIT ( ) NAMED_UNIT ( * ) SI_UNIT ( .MILLI., .METRE. ) );
#53 = AXIS2_PLACEMENT_3D ( 'NONE', #342, #412, #158 ) ;
#54 = PERSON_AND_ORGANIZATION ( #187, #409 ) ;
#55 = ORIENTED_EDGE ( 'NONE', *, *, #351, .F. ) ;
#56 = CIRCLE ( 'NONE', #228, 0.5460999999999999188 ) ;
#57 = EDGE_LOOP ( 'NONE', ( #366, #18 ) ) ;
#58 = CC_DESIGN_PERSON_AND_ORGANIZATION_ASSIGNMENT ( #212, #76, ( #7 ) ) ;
#59 = CARTESIAN_POINT ( 'NONE',  ( -7.940000000000001279, 0.000000000000000000, 3.180000000000000160 ) ) ;
#60 = DIRECTION ( 'NONE',  ( -0.000000000000000000, -0.000000000000000000, -1.000000000000000000 ) ) ;
#61 = DIRECTION ( 'NONE',  ( -0.000000000000000000, -0.000000000000000000, -1.000000000000000000 ) ) ;
#62 = DIRECTION ( 'NONE',  ( 1.000000000000000000, 0.000000000000000000, -0.000000000000000000 ) ) ;
#63 = CARTESIAN_POINT ( 'NONE',  ( -7.393900000000001249, 6.687796170143695477E-17, 3.180000000000000160 ) ) ;
#64 = CIRCLE ( 'NONE', #105, 0.5460999999999999188 ) ;
#65 = ORIENTED_EDGE ( 'NONE', *, *, #157, .F. ) ;
#66 = CIRCLE ( 'NONE', #401, 0.5460999999999999188 ) ;
#67 = CARTESIAN_POINT ( 'NONE',  ( -8.486100000000002197, 0.000000000000000000, 0.000000000000000000 ) ) ;
#68 = AXIS2_PLACEMENT_3D ( 'NONE', #199, #73, #222 ) ;
#69 = CARTESIAN_POINT ( 'NONE',  ( -7.393900000000001249, 6.687796170143697942E-17, 3.180000000000000160 ) ) ;
#70 = DIRECTION ( 'NONE',  ( 1.000000000000000000, 0.000000000000000000, -0.000000000000000000 ) ) ;
#71 = COORDINATED_UNIVERSAL_TIME_OFFSET ( 5, 0, .BEHIND. ) ;
#72 = VERTEX_POINT ( 'NONE', #218 ) ;
#73 = DIRECTION ( 'NONE',  ( -0.000000000000000000, -0.000000000000000000, -1.000000000000000000 ) ) ;
#74 = CIRCLE ( 'NONE', #179, 9.524999999999998579 ) ;
#75 = ADVANCED_FACE ( 'NONE', ( #358 ), #206, .F. ) ;
#76 = PERSON_AND_ORGANIZATION_ROLE ( 'creator' ) ;
#77 = ORIENTED_EDGE ( 'NONE', *, *, #210, .F. ) ;
#78 = EDGE_CURVE ( 'NONE', #101, #154, #240, .T. ) ;
#79 = VECTOR ( 'NONE', #355, 1000.000000000000000 ) ;
#80 = ORIENTED_EDGE ( 'NONE', *, *, #38, .F. ) ;
#81 = AXIS2_PLACEMENT_3D ( 'NONE', #14, #16, #337 ) ;
#82 =( NAMED_UNIT ( * ) PLANE_ANGLE_UNIT ( ) SI_UNIT ( $, .RADIAN. ) );
#83 = EDGE_CURVE ( 'NONE', #327, #120, #132, .T. ) ;
#84 = CARTESIAN_POINT ( 'NONE',  ( 6.349999999999999645, 7.776507174585690191E-16, 3.180000000000000160 ) ) ;
#85 = ORIENTED_EDGE ( 'NONE', *, *, #78, .F. ) ;
#86 = MECHANICAL_CONTEXT ( 'NONE', #300, 'mechanical' ) ;
#87 = CC_DESIGN_APPROVAL ( #253, ( #200 ) ) ;
#88 = VERTEX_POINT ( 'NONE', #216 ) ;
#89 = FACE_BOUND ( 'NONE', #57, .T. ) ;
#90 = EDGE_CURVE ( 'NONE', #380, #373, #114, .T. ) ;
#91 = CARTESIAN_POINT ( 'NONE',  ( 0.000000000000000000, 0.000000000000000000, 0.000000000000000000 ) ) ;
#92 = DIRECTION ( 'NONE',  ( 1.000000000000000000, 0.000000000000000000, 0.000000000000000000 ) ) ;
#93 = ORIENTED_EDGE ( 'NONE', *, *, #246, .F. ) ;
#94 = CARTESIAN_POINT ( 'NONE',  ( -7.940000000000001279, 0.000000000000000000, 0.000000000000000000 ) ) ;
#95 = DIRECTION ( 'NONE',  ( 1.000000000000000000, 0.000000000000000000, 0.000000000000000000 ) ) ;
#96 = FACE_OUTER_BOUND ( 'NONE', #241, .T. ) ;
#97 = CARTESIAN_POINT ( 'NONE',  ( 0.000000000000000000, 0.000000000000000000, 3.180000000000000160 ) ) ;
#98 = APPROVAL_PERSON_ORGANIZATION ( #186, #298, #324 ) ;
#99 = DIRECTION ( 'NONE',  ( 0.000000000000000000, 0.000000000000000000, 1.000000000000000000 ) ) ;
#100 = CARTESIAN_POINT ( 'NONE',  ( 0.000000000000000000, 0.000000000000000000, -0.002000000000000000042 ) ) ;
#101 = VERTEX_POINT ( 'NONE', #69 ) ;
#102 = COORDINATED_UNIVERSAL_TIME_OFFSET ( 5, 0, .BEHIND. ) ;
#103 = CARTESIAN_POINT ( 'NONE',  ( 9.525000000000000355, 1.166476076187853627E-15, 3.180000000000000160 ) ) ;
#104 = CIRCLE ( 'NONE', #273, 0.5460999999999999188 ) ;
#105 = AXIS2_PLACEMENT_3D ( 'NONE', #365, #44, #46 ) ;
#106 = DIRECTION ( 'NONE',  ( 1.000000000000000000, 0.000000000000000000, 0.000000000000000000 ) ) ;
#107 = APPROVAL_PERSON_ORGANIZATION ( #306, #253, #184 ) ;
#108 = EDGE_CURVE ( 'NONE', #154, #373, #66, .T. ) ;
#109 = ADVANCED_FACE ( 'NONE', ( #13 ), #308, .T. ) ;
#110 = FACE_OUTER_BOUND ( 'NONE', #188, .T. ) ;
#111 = DATE_TIME_ROLE ( 'classification_date' ) ;
#112 = ORIENTED_EDGE ( 'NONE', *, *, #83, .F. ) ;
#113 = CC_DESIGN_SECURITY_CLASSIFICATION ( #19, ( #7 ) ) ;
#114 = LINE ( 'NONE', #125, #214 ) ;
#115 = EDGE_CURVE ( 'NONE', #390, #72, #31, .T. ) ;
#116 = APPLICATION_CONTEXT ( 'configuration controlled 3d designs of mechanical parts and assemblies' ) ;
#117 = CARTESIAN_POINT ( 'NONE',  ( -9.525000000000000355, 0.000000000000000000, 3.180000000000000160 ) ) ;
#118 = ORIENTED_EDGE ( 'NONE', *, *, #90, .T. ) ;
#119 = CALENDAR_DATE ( 2021, 23, 8 ) ;
#120 = VERTEX_POINT ( 'NONE', #33 ) ;
#121 = CIRCLE ( 'NONE', #266, 0.5461000000000006960 ) ;
#122 = AXIS2_PLACEMENT_3D ( 'NONE', #268, #333, #148 ) ;
#123 = EDGE_LOOP ( 'NONE', ( #149, #224, #280, #41 ) ) ;
#124 = DIRECTION ( 'NONE',  ( 0.000000000000000000, 0.000000000000000000, 1.000000000000000000 ) ) ;
#125 = CARTESIAN_POINT ( 'NONE',  ( -8.486100000000002197, 0.000000000000000000, 3.180000000000000160 ) ) ;
#126 = CIRCLE ( 'NONE', #284, 0.5461000000000006960 ) ;
#127 = DIRECTION ( 'NONE',  ( 0.000000000000000000, 0.000000000000000000, 1.000000000000000000 ) ) ;
#128 = EDGE_CURVE ( 'NONE', #403, #88, #277, .T. ) ;
#129 = CARTESIAN_POINT ( 'NONE',  ( 0.000000000000000000, 0.000000000000000000, 3.180000000000000160 ) ) ;
#130 = CALENDAR_DATE ( 2021, 23, 8 ) ;
#131 = ORIENTED_EDGE ( 'NONE', *, *, #128, .F. ) ;
#132 = LINE ( 'NONE', #30, #381 ) ;
#133 = AXIS2_PLACEMENT_3D ( 'NONE', #59, #61, #248 ) ;
#134 = CARTESIAN_POINT ( 'NONE',  ( -6.349999999999999645, 0.000000000000000000, 3.180000000000000160 ) ) ;
#135 = LOCAL_TIME ( 15, 35, 39.00000000000000000, #71 ) ;
#136 = EDGE_CURVE ( 'NONE', #88, #403, #193, .T. ) ;
#137 = CARTESIAN_POINT ( 'NONE',  ( 0.000000000000000000, 0.000000000000000000, 3.180000000000000160 ) ) ;
#138 = EDGE_LOOP ( 'NONE', ( #189, #311 ) ) ;
#139 = DESIGN_CONTEXT ( 'detailed design', #116, 'design' ) ;
#140 = PERSON_AND_ORGANIZATION ( #187, #409 ) ;
#141 = ORIENTED_EDGE ( 'NONE', *, *, #108, .T. ) ;
#142 = PERSON_AND_ORGANIZATION_ROLE ( 'classification_officer' ) ;
#143 =( NAMED_UNIT ( * ) SI_UNIT ( $, .STERADIAN. ) SOLID_ANGLE_UNIT ( ) );
#144 = ORIENTED_EDGE ( 'NONE', *, *, #45, .T. ) ;
#145 = LINE ( 'NONE', #117, #169 ) ;
#146 = CC_DESIGN_PERSON_AND_ORGANIZATION_ASSIGNMENT ( #379, #294, ( #7 ) ) ;
#147 = APPLICATION_PROTOCOL_DEFINITION ( 'international standard', 'config_control_design', 1994, #116 ) ;
#148 = DIRECTION ( 'NONE',  ( 1.000000000000000000, 0.000000000000000000, 0.000000000000000000 ) ) ;
#149 = ORIENTED_EDGE ( 'NONE', *, *, #393, .F. ) ;
#150 = CARTESIAN_POINT ( 'NONE',  ( -6.349999999999999645, 0.000000000000000000, 3.180000000000000160 ) ) ;
#151 = ORIENTED_EDGE ( 'NONE', *, *, #83, .T. ) ;
#152 = AXIS2_PLACEMENT_3D ( 'NONE', #285, #316, #164 ) ;
#153 = CALENDAR_DATE ( 2021, 23, 8 ) ;
#154 = VERTEX_POINT ( 'NONE', #192 ) ;
#155 = CIRCLE ( 'NONE', #233, 6.349999999999999645 ) ;
#156 = CIRCLE ( 'NONE', #270, 0.5461000000000006960 ) ;
#157 = EDGE_CURVE ( 'NONE', #403, #265, #402, .T. ) ;
#158 = DIRECTION ( 'NONE',  ( 1.000000000000000000, 0.000000000000000000, 0.000000000000000000 ) ) ;
#159 = DIRECTION ( 'NONE',  ( 0.000000000000000000, 0.000000000000000000, 1.000000000000000000 ) ) ;
#160 = AXIS2_PLACEMENT_3D ( 'NONE', #310, #127, #375 ) ;
#161 = LINE ( 'NONE', #84, #339 ) ;
#162 = ORIENTED_EDGE ( 'NONE', *, *, #328, .T. ) ;
#163 = ORIENTED_EDGE ( 'NONE', *, *, #9, .T. ) ;
#164 = DIRECTION ( 'NONE',  ( 1.000000000000000000, 0.000000000000000000, 0.000000000000000000 ) ) ;
#165 = DIRECTION ( 'NONE',  ( -0.000000000000000000, -0.000000000000000000, -1.000000000000000000 ) ) ;
#166 = CARTESIAN_POINT ( 'NONE',  ( 0.000000000000000000, 0.000000000000000000, 3.180000000000000160 ) ) ;
#167 = EDGE_LOOP ( 'NONE', ( #272, #371, #170, #65 ) ) ;
#168 = DIRECTION ( 'NONE',  ( 0.000000000000000000, 0.000000000000000000, 1.000000000000000000 ) ) ;
#169 = VECTOR ( 'NONE', #239, 1000.000000000000000 ) ;
#170 = ORIENTED_EDGE ( 'NONE', *, *, #256, .F. ) ;
#171 = DIRECTION ( 'NONE',  ( -0.000000000000000000, -0.000000000000000000, -1.000000000000000000 ) ) ;
#172 = AXIS2_PLACEMENT_3D ( 'NONE', #91, #195, #414 ) ;
#173 = AXIS2_PLACEMENT_3D ( 'NONE', #194, #242, #249 ) ;
#174 = ORIENTED_EDGE ( 'NONE', *, *, #115, .F. ) ;
#175 = CIRCLE ( 'NONE', #172, 6.349999999999999645 ) ;
#176 = SECURITY_CLASSIFICATION_LEVEL ( 'unclassified' ) ;
#177 = ADVANCED_FACE ( 'NONE', ( #110 ), #309, .F. ) ;
#178 = EDGE_LOOP ( 'NONE', ( #299, #29, #151, #77 ) ) ;
#179 = AXIS2_PLACEMENT_3D ( 'NONE', #100, #4, #202 ) ;
#180 = APPROVAL_PERSON_ORGANIZATION ( #252, #326, #260 ) ;
#181 = FACE_OUTER_BOUND ( 'NONE', #138, .T. ) ;
#182 = EDGE_CURVE ( 'NONE', #120, #220, #340, .T. ) ;
#183 = AXIS2_PLACEMENT_3D ( 'NONE', #377, #165, #313 ) ;
#184 = APPROVAL_ROLE ( '' ) ;
#185 = CYLINDRICAL_SURFACE ( 'NONE', #133, 0.5461000000000006960 ) ;
#186 = PERSON_AND_ORGANIZATION ( #187, #409 ) ;
#187 = PERSON ( 'UNSPECIFIED', 'UNSPECIFIED', 'UNSPECIFIED', ('UNSPECIFIED'), ('UNSPECIFIED'), ('UNSPECIFIED') ) ;
#188 = EDGE_LOOP ( 'NONE', ( #302, #238 ) ) ;
#189 = ORIENTED_EDGE ( 'NONE', *, *, #351, .T. ) ;
#190 = CARTESIAN_POINT ( 'NONE',  ( 8.486100000000002197, 6.687796170143707803E-17, 3.180000000000000160 ) ) ;
#191 = AXIS2_PLACEMENT_3D ( 'NONE', #257, #43, #70 ) ;
#192 = CARTESIAN_POINT ( 'NONE',  ( -7.393900000000001249, 6.687796170143697942E-17, 0.000000000000000000 ) ) ;
#193 = CIRCLE ( 'NONE', #53, 6.349999999999999645 ) ;
#194 = CARTESIAN_POINT ( 'NONE',  ( 0.000000000000000000, 0.000000000000000000, -0.002000000000000000042 ) ) ;
#195 = DIRECTION ( 'NONE',  ( 0.000000000000000000, 0.000000000000000000, 1.000000000000000000 ) ) ;
#196 = DIRECTION ( 'NONE',  ( -0.000000000000000000, -0.000000000000000000, -1.000000000000000000 ) ) ;
#197 = EDGE_LOOP ( 'NONE', ( #144, #305, #80, #37 ) ) ;
#198 = FACE_BOUND ( 'NONE', #276, .T. ) ;
#199 = CARTESIAN_POINT ( 'NONE',  ( -7.940000000000001279, 0.000000000000000000, 3.180000000000000160 ) ) ;
#200 = PRODUCT_DEFINITION ( 'UNKNOWN', '', #7, #139 ) ;
#201 = DIRECTION ( 'NONE',  ( -0.000000000000000000, -0.000000000000000000, -1.000000000000000000 ) ) ;
#202 = DIRECTION ( 'NONE',  ( 1.000000000000000000, 0.000000000000000000, 0.000000000000000000 ) ) ;
#203 = EDGE_LOOP ( 'NONE', ( #85, #387, #118, #289 ) ) ;
#204 = ADVANCED_FACE ( 'NONE', ( #20 ), #354, .T. ) ;
#205 = EDGE_LOOP ( 'NONE', ( #131, #363 ) ) ;
#206 = CYLINDRICAL_SURFACE ( 'NONE', #360, 6.349999999999999645 ) ;
#207 = EDGE_LOOP ( 'NONE', ( #93, #290, #251, #221 ) ) ;
#208 = CC_DESIGN_PERSON_AND_ORGANIZATION_ASSIGNMENT ( #291, #398, ( #200 ) ) ;
#209 = COORDINATED_UNIVERSAL_TIME_OFFSET ( 5, 0, .BEHIND. ) ;
#210 = EDGE_CURVE ( 'NONE', #220, #120, #126, .T. ) ;
#211 = DATE_TIME_ROLE ( 'creation_date' ) ;
#212 = PERSON_AND_ORGANIZATION ( #187, #409 ) ;
#213 = ORIENTED_EDGE ( 'NONE', *, *, #237, .T. ) ;
#214 = VECTOR ( 'NONE', #201, 1000.000000000000000 ) ;
#215 = ORIENTED_EDGE ( 'NONE', *, *, #210, .T. ) ;
#216 = CARTESIAN_POINT ( 'NONE',  ( 6.349999999999999645, 7.776507174585690191E-16, 3.180000000000000160 ) ) ;
#217 = DIRECTION ( 'NONE',  ( 1.000000000000000000, 0.000000000000000000, 0.000000000000000000 ) ) ;
#218 = CARTESIAN_POINT ( 'NONE',  ( 9.524999999999998579, 1.166476076187853627E-15, -0.002000000000000000042 ) ) ;
#219 = CARTESIAN_POINT ( 'NONE',  ( 8.486100000000002197, 6.687796170143712733E-17, 0.000000000000000000 ) ) ;
#220 = VERTEX_POINT ( 'NONE', #219 ) ;
#221 = ORIENTED_EDGE ( 'NONE', *, *, #370, .F. ) ;
#222 = DIRECTION ( 'NONE',  ( -1.000000000000000000, 0.000000000000000000, 0.000000000000000000 ) ) ;
#223 = DIRECTION ( 'NONE',  ( 1.000000000000000000, 0.000000000000000000, -0.000000000000000000 ) ) ;
#224 = ORIENTED_EDGE ( 'NONE', *, *, #136, .T. ) ;
#225 = CYLINDRICAL_SURFACE ( 'NONE', #68, 0.5461000000000006960 ) ;
#226 = CARTESIAN_POINT ( 'NONE',  ( -6.349999999999999645, 0.000000000000000000, 0.000000000000000000 ) ) ;
#227 = ADVANCED_FACE ( 'NONE', ( #198, #181, #314, #89 ), #347, .T. ) ;
#228 = AXIS2_PLACEMENT_3D ( 'NONE', #94, #408, #27 ) ;
#229 = ORIENTED_EDGE ( 'NONE', *, *, #15, .T. ) ;
#230 = UNCERTAINTY_MEASURE_WITH_UNIT (LENGTH_MEASURE( 1.000000000000000082E-05 ), #52, 'distance_accuracy_value', 'NONE');
#231 = ADVANCED_FACE ( 'NONE', ( #3 ), #185, .F. ) ;
#232 = FACE_OUTER_BOUND ( 'NONE', #288, .T. ) ;
#233 = AXIS2_PLACEMENT_3D ( 'NONE', #36, #255, #385 ) ;
#234 = CARTESIAN_POINT ( 'NONE',  ( 9.525000000000000355, 1.166476076187853627E-15, 3.180000000000000160 ) ) ;
#235 = EDGE_LOOP ( 'NONE', ( #174, #55, #338, #229 ) ) ;
#236 = DIRECTION ( 'NONE',  ( -0.000000000000000000, -0.000000000000000000, -1.000000000000000000 ) ) ;
#237 = EDGE_CURVE ( 'NONE', #352, #220, #332, .T. ) ;
#238 = ORIENTED_EDGE ( 'NONE', *, *, #303, .F. ) ;
#239 = DIRECTION ( 'NONE',  ( -0.000000000000000000, -0.000000000000000000, -1.000000000000000000 ) ) ;
#240 = LINE ( 'NONE', #63, #23 ) ;
#241 = EDGE_LOOP ( 'NONE', ( #336, #215 ) ) ;
#242 = DIRECTION ( 'NONE',  ( 0.000000000000000000, 0.000000000000000000, 1.000000000000000000 ) ) ;
#243 = CARTESIAN_POINT ( 'NONE',  ( 0.000000000000000000, 0.000000000000000000, 3.180000000000000160 ) ) ;
#244 = CARTESIAN_POINT ( 'NONE',  ( 0.000000000000000000, 0.000000000000000000, -0.002000000000000000042 ) ) ;
#245 = VERTEX_POINT ( 'NONE', #376 ) ;
#246 = EDGE_CURVE ( 'NONE', #390, #410, #346, .T. ) ;
#247 = DIRECTION ( 'NONE',  ( 1.000000000000000000, 0.000000000000000000, 0.000000000000000000 ) ) ;
#248 = DIRECTION ( 'NONE',  ( -1.000000000000000000, 0.000000000000000000, 0.000000000000000000 ) ) ;
#249 = DIRECTION ( 'NONE',  ( 1.000000000000000000, 0.000000000000000000, 0.000000000000000000 ) ) ;
#250 = CARTESIAN_POINT ( 'NONE',  ( 0.000000000000000000, 0.000000000000000000, 0.000000000000000000 ) ) ;
#251 = ORIENTED_EDGE ( 'NONE', *, *, #303, .T. ) ;
#252 = PERSON_AND_ORGANIZATION ( #187, #409 ) ;
#253 = APPROVAL ( #50, 'UNSPECIFIED' ) ;
#254 = VECTOR ( 'NONE', #283, 1000.000000000000000 ) ;
#255 = DIRECTION ( 'NONE',  ( 0.000000000000000000, 0.000000000000000000, 1.000000000000000000 ) ) ;
#256 = EDGE_CURVE ( 'NONE', #265, #245, #175, .T. ) ;
#257 = CARTESIAN_POINT ( 'NONE',  ( 0.000000000000000000, 0.000000000000000000, 0.000000000000000000 ) ) ;
#258 = VECTOR ( 'NONE', #279, 1000.000000000000000 ) ;
#259 = AXIS2_PLACEMENT_3D ( 'NONE', #97, #344, #406 ) ;
#260 = APPROVAL_ROLE ( '' ) ;
#261 = ADVANCED_FACE ( 'NONE', ( #232 ), #405, .F. ) ;
#262 = COORDINATED_UNIVERSAL_TIME_OFFSET ( 5, 0, .BEHIND. ) ;
#263 = ADVANCED_FACE ( 'NONE', ( #39 ), #378, .T. ) ;
#264 = CARTESIAN_POINT ( 'NONE',  ( 7.940000000000001279, 0.000000000000000000, 3.180000000000000160 ) ) ;
#265 = VERTEX_POINT ( 'NONE', #226 ) ;
#266 = AXIS2_PLACEMENT_3D ( 'NONE', #411, #99, #92 ) ;
#267 = MANIFOLD_SOLID_BREP ( 'Boss-Extrude2', #296 ) ;
#268 = CARTESIAN_POINT ( 'NONE',  ( 0.000000000000000000, 0.000000000000000000, 0.000000000000000000 ) ) ;
#269 = CARTESIAN_POINT ( 'NONE',  ( -9.525000000000000355, 0.000000000000000000, 3.180000000000000160 ) ) ;
#270 = AXIS2_PLACEMENT_3D ( 'NONE', #264, #388, #356 ) ;
#271 = FACE_OUTER_BOUND ( 'NONE', #197, .T. ) ;
#272 = ORIENTED_EDGE ( 'NONE', *, *, #128, .T. ) ;
#273 = AXIS2_PLACEMENT_3D ( 'NONE', #286, #24, #247 ) ;
#274 = PERSON_AND_ORGANIZATION_ROLE ( 'design_owner' ) ;
#275 = LOCAL_TIME ( 15, 35, 39.00000000000000000, #262 ) ;
#276 = EDGE_LOOP ( 'NONE', ( #362, #330 ) ) ;
#277 = CIRCLE ( 'NONE', #293, 6.349999999999999645 ) ;
#278 = CC_DESIGN_DATE_AND_TIME_ASSIGNMENT ( #17, #111, ( #19 ) ) ;
#279 = DIRECTION ( 'NONE',  ( -0.000000000000000000, -0.000000000000000000, -1.000000000000000000 ) ) ;
#280 = ORIENTED_EDGE ( 'NONE', *, *, #157, .T. ) ;
#281 = APPROVAL_DATE_TIME ( #374, #253 ) ;
#282 = APPROVAL_STATUS ( 'not_yet_approved' ) ;
#283 = DIRECTION ( 'NONE',  ( -0.000000000000000000, -0.000000000000000000, -1.000000000000000000 ) ) ;
#284 = AXIS2_PLACEMENT_3D ( 'NONE', #349, #25, #95 ) ;
#285 = CARTESIAN_POINT ( 'NONE',  ( 0.000000000000000000, 0.000000000000000000, 3.180000000000000160 ) ) ;
#286 = CARTESIAN_POINT ( 'NONE',  ( -7.940000000000001279, 0.000000000000000000, 3.180000000000000160 ) ) ;
#287 = LOCAL_TIME ( 15, 35, 39.00000000000000000, #369 ) ;
#288 = EDGE_LOOP ( 'NONE', ( #163, #213, #400, #112 ) ) ;
#289 = ORIENTED_EDGE ( 'NONE', *, *, #108, .F. ) ;
#290 = ORIENTED_EDGE ( 'NONE', *, *, #115, .T. ) ;
#291 = PERSON_AND_ORGANIZATION ( #187, #409 ) ;
#292 = ADVANCED_FACE ( 'NONE', ( #96 ), #6, .T. ) ;
#293 = AXIS2_PLACEMENT_3D ( 'NONE', #129, #124, #217 ) ;
#294 = PERSON_AND_ORGANIZATION_ROLE ( 'design_supplier' ) ;
#295 = APPROVAL_DATE_TIME ( #40, #326 ) ;
#296 = CLOSED_SHELL ( 'NONE', ( #261, #359, #75, #204, #227, #325, #323, #231, #389, #292, #263, #109, #177 ) ) ;
#297 = CARTESIAN_POINT ( 'NONE',  ( 0.000000000000000000, 0.000000000000000000, 3.180000000000000160 ) ) ;
#298 = APPROVAL ( #8, 'UNSPECIFIED' ) ;
#299 = ORIENTED_EDGE ( 'NONE', *, *, #237, .F. ) ;
#300 = APPLICATION_CONTEXT ( 'configuration controlled 3d designs of mechanical parts and assemblies' ) ;
#301 = ADVANCED_BREP_SHAPE_REPRESENTATION ( 'Web Model 19307_19307', ( #267, #122 ), #397 ) ;
#302 = ORIENTED_EDGE ( 'NONE', *, *, #15, .F. ) ;
#303 = EDGE_CURVE ( 'NONE', #72, #11, #74, .T. ) ;
#304 = EDGE_CURVE ( 'NONE', #352, #327, #156, .T. ) ;
#305 = ORIENTED_EDGE ( 'NONE', *, *, #78, .T. ) ;
#306 = PERSON_AND_ORGANIZATION ( #187, #409 ) ;
#307 = CC_DESIGN_PERSON_AND_ORGANIZATION_ASSIGNMENT ( #54, #142, ( #19 ) ) ;
#308 = PLANE ( 'NONE',  #26 ) ;
#309 = PLANE ( 'NONE',  #35 ) ;
#310 = CARTESIAN_POINT ( 'NONE',  ( 7.940000000000001279, 0.000000000000000000, 0.000000000000000000 ) ) ;
#311 = ORIENTED_EDGE ( 'NONE', *, *, #246, .T. ) ;
#312 = DIRECTION ( 'NONE',  ( -1.000000000000000000, 0.000000000000000000, 0.000000000000000000 ) ) ;
#313 = DIRECTION ( 'NONE',  ( -1.000000000000000000, 0.000000000000000000, 0.000000000000000000 ) ) ;
#314 = FACE_BOUND ( 'NONE', #205, .T. ) ;
#315 = CARTESIAN_POINT ( 'NONE',  ( 0.000000000000000000, 0.000000000000000000, 3.180000000000000160 ) ) ;
#316 = DIRECTION ( 'NONE',  ( 0.000000000000000000, 0.000000000000000000, 1.000000000000000000 ) ) ;
#317 = DIRECTION ( 'NONE',  ( 0.000000000000000000, 0.000000000000000000, 1.000000000000000000 ) ) ;
#318 = APPROVAL_DATE_TIME ( #361, #298 ) ;
#319 = DIRECTION ( 'NONE',  ( 1.000000000000000000, 0.000000000000000000, 0.000000000000000000 ) ) ;
#320 = DIRECTION ( 'NONE',  ( 0.000000000000000000, 0.000000000000000000, 1.000000000000000000 ) ) ;
#321 = AXIS2_PLACEMENT_3D ( 'NONE', #243, #159, #350 ) ;
#322 = FACE_OUTER_BOUND ( 'NONE', #123, .T. ) ;
#323 = ADVANCED_FACE ( 'NONE', ( #322 ), #413, .F. ) ;
#324 = APPROVAL_ROLE ( '' ) ;
#325 = ADVANCED_FACE ( 'NONE', ( #396 ), #331, .T. ) ;
#326 = APPROVAL ( #282, 'UNSPECIFIED' ) ;
#327 = VERTEX_POINT ( 'NONE', #34 ) ;
#328 = EDGE_CURVE ( 'NONE', #245, #265, #155, .T. ) ;
#329 = DIRECTION ( 'NONE',  ( -1.000000000000000000, 0.000000000000000000, 0.000000000000000000 ) ) ;
#330 = ORIENTED_EDGE ( 'NONE', *, *, #407, .F. ) ;
#331 = CYLINDRICAL_SURFACE ( 'NONE', #51, 9.525000000000000355 ) ;
#332 = LINE ( 'NONE', #190, #258 ) ;
#333 = DIRECTION ( 'NONE',  ( 0.000000000000000000, 0.000000000000000000, 1.000000000000000000 ) ) ;
#334 = CC_DESIGN_PERSON_AND_ORGANIZATION_ASSIGNMENT ( #140, #274, ( #49 ) ) ;
#335 = CARTESIAN_POINT ( 'NONE',  ( -8.486100000000002197, 0.000000000000000000, 3.180000000000000160 ) ) ;
#336 = ORIENTED_EDGE ( 'NONE', *, *, #182, .T. ) ;
#337 = DIRECTION ( 'NONE',  ( -1.000000000000000000, 0.000000000000000000, 0.000000000000000000 ) ) ;
#338 = ORIENTED_EDGE ( 'NONE', *, *, #370, .T. ) ;
#339 = VECTOR ( 'NONE', #236, 1000.000000000000000 ) ;
#340 = CIRCLE ( 'NONE', #160, 0.5461000000000006960 ) ;
#341 = AXIS2_PLACEMENT_3D ( 'NONE', #137, #320, #106 ) ;
#342 = CARTESIAN_POINT ( 'NONE',  ( 0.000000000000000000, 0.000000000000000000, 3.180000000000000160 ) ) ;
#343 = DIRECTION ( 'NONE',  ( -0.000000000000000000, -0.000000000000000000, -1.000000000000000000 ) ) ;
#344 = DIRECTION ( 'NONE',  ( -0.000000000000000000, -0.000000000000000000, -1.000000000000000000 ) ) ;
#345 = CALENDAR_DATE ( 2021, 23, 8 ) ;
#346 = CIRCLE ( 'NONE', #152, 9.525000000000000355 ) ;
#347 = PLANE ( 'NONE',  #321 ) ;
#348 = PRODUCT_RELATED_PRODUCT_CATEGORY ( 'detail', '', ( #49 ) ) ;
#349 = CARTESIAN_POINT ( 'NONE',  ( 7.940000000000001279, 0.000000000000000000, 0.000000000000000000 ) ) ;
#350 = DIRECTION ( 'NONE',  ( 1.000000000000000000, 0.000000000000000000, -0.000000000000000000 ) ) ;
#351 = EDGE_CURVE ( 'NONE', #410, #390, #395, .T. ) ;
#352 = VERTEX_POINT ( 'NONE', #353 ) ;
#353 = CARTESIAN_POINT ( 'NONE',  ( 8.486100000000002197, 6.687796170143712733E-17, 3.180000000000000160 ) ) ;
#354 = CYLINDRICAL_SURFACE ( 'NONE', #259, 9.525000000000000355 ) ;
#355 = DIRECTION ( 'NONE',  ( -0.000000000000000000, -0.000000000000000000, -1.000000000000000000 ) ) ;
#356 = DIRECTION ( 'NONE',  ( 1.000000000000000000, 0.000000000000000000, 0.000000000000000000 ) ) ;
#357 = CC_DESIGN_APPROVAL ( #298, ( #19 ) ) ;
#358 = FACE_OUTER_BOUND ( 'NONE', #167, .T. ) ;
#359 = ADVANCED_FACE ( 'NONE', ( #271 ), #225, .F. ) ;
#360 = AXIS2_PLACEMENT_3D ( 'NONE', #315, #343, #312 ) ;
#361 = DATE_AND_TIME ( #119, #135 ) ;
#362 = ORIENTED_EDGE ( 'NONE', *, *, #45, .F. ) ;
#363 = ORIENTED_EDGE ( 'NONE', *, *, #136, .F. ) ;
#364 = AXIS2_PLACEMENT_3D ( 'NONE', #250, #317, #223 ) ;
#365 = CARTESIAN_POINT ( 'NONE',  ( -7.940000000000001279, 0.000000000000000000, 3.180000000000000160 ) ) ;
#366 = ORIENTED_EDGE ( 'NONE', *, *, #9, .F. ) ;
#367 = LOCAL_TIME ( 15, 35, 39.00000000000000000, #102 ) ;
#368 = APPLICATION_PROTOCOL_DEFINITION ( 'international standard', 'config_control_design', 1994, #300 ) ;
#369 = COORDINATED_UNIVERSAL_TIME_OFFSET ( 5, 0, .BEHIND. ) ;
#370 = EDGE_CURVE ( 'NONE', #410, #11, #145, .T. ) ;
#371 = ORIENTED_EDGE ( 'NONE', *, *, #393, .T. ) ;
#372 = PRODUCT_DEFINITION_SHAPE ( 'NONE', 'NONE',  #200 ) ;
#373 = VERTEX_POINT ( 'NONE', #67 ) ;
#374 = DATE_AND_TIME ( #48, #367 ) ;
#375 = DIRECTION ( 'NONE',  ( 1.000000000000000000, 0.000000000000000000, 0.000000000000000000 ) ) ;
#376 = CARTESIAN_POINT ( 'NONE',  ( 6.349999999999999645, 7.776507174585690191E-16, 0.000000000000000000 ) ) ;
#377 = CARTESIAN_POINT ( 'NONE',  ( 7.940000000000001279, 0.000000000000000000, 3.180000000000000160 ) ) ;
#378 = PLANE ( 'NONE',  #364 ) ;
#379 = PERSON_AND_ORGANIZATION ( #187, #409 ) ;
#380 = VERTEX_POINT ( 'NONE', #335 ) ;
#381 = VECTOR ( 'NONE', #60, 1000.000000000000000 ) ;
#382 = CARTESIAN_POINT ( 'NONE',  ( -7.940000000000001279, 0.000000000000000000, 0.000000000000000000 ) ) ;
#383 = DIRECTION ( 'NONE',  ( -0.000000000000000000, -0.000000000000000000, -1.000000000000000000 ) ) ;
#384 = CARTESIAN_POINT ( 'NONE',  ( 0.000000000000000000, 0.000000000000000000, 0.000000000000000000 ) ) ;
#385 = DIRECTION ( 'NONE',  ( 1.000000000000000000, 0.000000000000000000, 0.000000000000000000 ) ) ;
#386 = CC_DESIGN_APPROVAL ( #326, ( #7 ) ) ;
#387 = ORIENTED_EDGE ( 'NONE', *, *, #407, .T. ) ;
#388 = DIRECTION ( 'NONE',  ( 0.000000000000000000, 0.000000000000000000, 1.000000000000000000 ) ) ;
#389 = ADVANCED_FACE ( 'NONE', ( #399 ), #404, .F. ) ;
#390 = VERTEX_POINT ( 'NONE', #234 ) ;
#391 = CIRCLE ( 'NONE', #173, 9.524999999999998579 ) ;
#392 = CC_DESIGN_DATE_AND_TIME_ASSIGNMENT ( #12, #211, ( #200 ) ) ;
#393 = EDGE_CURVE ( 'NONE', #88, #245, #161, .T. ) ;
#394 = ORIENTED_EDGE ( 'NONE', *, *, #38, .T. ) ;
#395 = CIRCLE ( 'NONE', #341, 9.525000000000000355 ) ;
#396 = FACE_OUTER_BOUND ( 'NONE', #235, .T. ) ;
#397 =( GEOMETRIC_REPRESENTATION_CONTEXT ( 3 ) GLOBAL_UNCERTAINTY_ASSIGNED_CONTEXT ( ( #230 ) ) GLOBAL_UNIT_ASSIGNED_CONTEXT ( ( #52, #82, #143 ) ) REPRESENTATION_CONTEXT ( 'NONE', 'WORKASPACE' ) );
#398 = PERSON_AND_ORGANIZATION_ROLE ( 'creator' ) ;
#399 = FACE_OUTER_BOUND ( 'NONE', #178, .T. ) ;
#400 = ORIENTED_EDGE ( 'NONE', *, *, #182, .F. ) ;
#401 = AXIS2_PLACEMENT_3D ( 'NONE', #382, #168, #319 ) ;
#402 = LINE ( 'NONE', #134, #254 ) ;
#403 = VERTEX_POINT ( 'NONE', #150 ) ;
#404 = CYLINDRICAL_SURFACE ( 'NONE', #81, 0.5461000000000006960 ) ;
#405 = CYLINDRICAL_SURFACE ( 'NONE', #183, 0.5461000000000006960 ) ;
#406 = DIRECTION ( 'NONE',  ( -1.000000000000000000, 0.000000000000000000, 0.000000000000000000 ) ) ;
#407 = EDGE_CURVE ( 'NONE', #101, #380, #64, .T. ) ;
#408 = DIRECTION ( 'NONE',  ( 0.000000000000000000, 0.000000000000000000, 1.000000000000000000 ) ) ;
#409 = ORGANIZATION ( 'UNSPECIFIED', 'UNSPECIFIED', '' ) ;
#410 = VERTEX_POINT ( 'NONE', #269 ) ;
#411 = CARTESIAN_POINT ( 'NONE',  ( 7.940000000000001279, 0.000000000000000000, 3.180000000000000160 ) ) ;
#412 = DIRECTION ( 'NONE',  ( 0.000000000000000000, 0.000000000000000000, 1.000000000000000000 ) ) ;
#413 = CYLINDRICAL_SURFACE ( 'NONE', #22, 6.349999999999999645 ) ;
#414 = DIRECTION ( 'NONE',  ( 1.000000000000000000, 0.000000000000000000, 0.000000000000000000 ) ) ;
#415 = CARTESIAN_POINT ( 'NONE',  ( -9.524999999999998579, 0.000000000000000000, -0.002000000000000000042 ) ) ;
ENDSEC;
END-ISO-10303-21;
