ISO-10303-21;
HEADER;
/* Generated by software containing ST-Developer
 * from STEP Tools, Inc. (www.steptools.com) 
 */

FILE_DESCRIPTION(
/* description */ (''),
/* implementation_level */ '2;1');

FILE_NAME(
/* name */ 
'C:/Users/Stephen Jaskelevicus/Desktop/50x5mm SQ 0_5CHAM.step',
/* time_stamp */ '2022-04-28T07:36:36-04:00',
/* author */ (''),
/* organization */ (''),
/* preprocessor_version */ 'ST-DEVELOPER v18.1',
/* originating_system */ 'Autodesk Translation Framework v10.14.0.1471',

/* authorisation */ '');

FILE_SCHEMA (('AUTOMOTIVE_DESIGN { 1 0 10303 214 3 1 1 }'));
ENDSEC;

DATA;
#10=MECHANICAL_DESIGN_GEOMETRIC_PRESENTATION_REPRESENTATION('',(#13),#375);
#11=SHAPE_REPRESENTATION_RELATIONSHIP('SRR','None',#382,#12);
#12=ADVANCED_BREP_SHAPE_REPRESENTATION('',(#14),#374);
#13=STYLED_ITEM('',(#391),#14);
#14=MANIFOLD_SOLID_BREP('Body1',#227);
#15=FACE_OUTER_BOUND('',#29,.T.);
#16=FACE_OUTER_BOUND('',#30,.T.);
#17=FACE_OUTER_BOUND('',#31,.T.);
#18=FACE_OUTER_BOUND('',#32,.T.);
#19=FACE_OUTER_BOUND('',#33,.T.);
#20=FACE_OUTER_BOUND('',#34,.T.);
#21=FACE_OUTER_BOUND('',#35,.T.);
#22=FACE_OUTER_BOUND('',#36,.T.);
#23=FACE_OUTER_BOUND('',#37,.T.);
#24=FACE_OUTER_BOUND('',#38,.T.);
#25=FACE_OUTER_BOUND('',#39,.T.);
#26=FACE_OUTER_BOUND('',#40,.T.);
#27=FACE_OUTER_BOUND('',#41,.T.);
#28=FACE_OUTER_BOUND('',#42,.T.);
#29=EDGE_LOOP('',(#143,#144,#145,#146));
#30=EDGE_LOOP('',(#147,#148,#149,#150));
#31=EDGE_LOOP('',(#151,#152,#153,#154));
#32=EDGE_LOOP('',(#155,#156,#157,#158));
#33=EDGE_LOOP('',(#159,#160,#161,#162));
#34=EDGE_LOOP('',(#163,#164,#165,#166));
#35=EDGE_LOOP('',(#167,#168,#169,#170));
#36=EDGE_LOOP('',(#171,#172,#173,#174));
#37=EDGE_LOOP('',(#175,#176,#177,#178));
#38=EDGE_LOOP('',(#179,#180,#181,#182));
#39=EDGE_LOOP('',(#183,#184,#185,#186));
#40=EDGE_LOOP('',(#187,#188,#189,#190));
#41=EDGE_LOOP('',(#191,#192,#193,#194));
#42=EDGE_LOOP('',(#195,#196,#197,#198));
#43=LINE('',#317,#71);
#44=LINE('',#319,#72);
#45=LINE('',#321,#73);
#46=LINE('',#322,#74);
#47=LINE('',#326,#75);
#48=LINE('',#328,#76);
#49=LINE('',#330,#77);
#50=LINE('',#331,#78);
#51=LINE('',#333,#79);
#52=LINE('',#334,#80);
#53=LINE('',#336,#81);
#54=LINE('',#337,#82);
#55=LINE('',#340,#83);
#56=LINE('',#342,#84);
#57=LINE('',#343,#85);
#58=LINE('',#346,#86);
#59=LINE('',#347,#87);
#60=LINE('',#352,#88);
#61=LINE('',#353,#89);
#62=LINE('',#354,#90);
#63=LINE('',#357,#91);
#64=LINE('',#358,#92);
#65=LINE('',#361,#93);
#66=LINE('',#363,#94);
#67=LINE('',#364,#95);
#68=LINE('',#366,#96);
#69=LINE('',#367,#97);
#70=LINE('',#369,#98);
#71=VECTOR('',#259,10.);
#72=VECTOR('',#260,10.);
#73=VECTOR('',#261,10.);
#74=VECTOR('',#262,10.);
#75=VECTOR('',#265,10.);
#76=VECTOR('',#266,10.);
#77=VECTOR('',#267,10.);
#78=VECTOR('',#268,10.);
#79=VECTOR('',#271,10.);
#80=VECTOR('',#272,10.);
#81=VECTOR('',#275,10.);
#82=VECTOR('',#276,10.);
#83=VECTOR('',#279,10.);
#84=VECTOR('',#280,10.);
#85=VECTOR('',#281,10.);
#86=VECTOR('',#284,10.);
#87=VECTOR('',#285,10.);
#88=VECTOR('',#290,10.);
#89=VECTOR('',#291,10.);
#90=VECTOR('',#292,10.);
#91=VECTOR('',#295,10.);
#92=VECTOR('',#296,10.);
#93=VECTOR('',#299,10.);
#94=VECTOR('',#300,10.);
#95=VECTOR('',#301,10.);
#96=VECTOR('',#304,10.);
#97=VECTOR('',#305,10.);
#98=VECTOR('',#308,10.);
#99=VERTEX_POINT('',#315);
#100=VERTEX_POINT('',#316);
#101=VERTEX_POINT('',#318);
#102=VERTEX_POINT('',#320);
#103=VERTEX_POINT('',#324);
#104=VERTEX_POINT('',#325);
#105=VERTEX_POINT('',#327);
#106=VERTEX_POINT('',#329);
#107=VERTEX_POINT('',#339);
#108=VERTEX_POINT('',#341);
#109=VERTEX_POINT('',#345);
#110=VERTEX_POINT('',#350);
#111=VERTEX_POINT('',#351);
#112=VERTEX_POINT('',#356);
#113=VERTEX_POINT('',#360);
#114=VERTEX_POINT('',#362);
#115=EDGE_CURVE('',#99,#100,#43,.T.);
#116=EDGE_CURVE('',#100,#101,#44,.T.);
#117=EDGE_CURVE('',#101,#102,#45,.T.);
#118=EDGE_CURVE('',#102,#99,#46,.T.);
#119=EDGE_CURVE('',#103,#104,#47,.T.);
#120=EDGE_CURVE('',#104,#105,#48,.T.);
#121=EDGE_CURVE('',#105,#106,#49,.T.);
#122=EDGE_CURVE('',#103,#106,#50,.T.);
#123=EDGE_CURVE('',#100,#105,#51,.T.);
#124=EDGE_CURVE('',#104,#101,#52,.T.);
#125=EDGE_CURVE('',#106,#99,#53,.T.);
#126=EDGE_CURVE('',#102,#103,#54,.T.);
#127=EDGE_CURVE('',#106,#107,#55,.T.);
#128=EDGE_CURVE('',#108,#107,#56,.T.);
#129=EDGE_CURVE('',#99,#108,#57,.T.);
#130=EDGE_CURVE('',#105,#109,#58,.T.);
#131=EDGE_CURVE('',#107,#109,#59,.T.);
#132=EDGE_CURVE('',#110,#111,#60,.T.);
#133=EDGE_CURVE('',#111,#107,#61,.T.);
#134=EDGE_CURVE('',#110,#109,#62,.T.);
#135=EDGE_CURVE('',#111,#112,#63,.T.);
#136=EDGE_CURVE('',#112,#108,#64,.T.);
#137=EDGE_CURVE('',#112,#113,#65,.T.);
#138=EDGE_CURVE('',#113,#114,#66,.T.);
#139=EDGE_CURVE('',#114,#108,#67,.T.);
#140=EDGE_CURVE('',#109,#114,#68,.T.);
#141=EDGE_CURVE('',#113,#110,#69,.T.);
#142=EDGE_CURVE('',#100,#114,#70,.T.);
#143=ORIENTED_EDGE('',*,*,#115,.T.);
#144=ORIENTED_EDGE('',*,*,#116,.T.);
#145=ORIENTED_EDGE('',*,*,#117,.T.);
#146=ORIENTED_EDGE('',*,*,#118,.T.);
#147=ORIENTED_EDGE('',*,*,#119,.T.);
#148=ORIENTED_EDGE('',*,*,#120,.T.);
#149=ORIENTED_EDGE('',*,*,#121,.T.);
#150=ORIENTED_EDGE('',*,*,#122,.F.);
#151=ORIENTED_EDGE('',*,*,#123,.T.);
#152=ORIENTED_EDGE('',*,*,#120,.F.);
#153=ORIENTED_EDGE('',*,*,#124,.T.);
#154=ORIENTED_EDGE('',*,*,#116,.F.);
#155=ORIENTED_EDGE('',*,*,#125,.T.);
#156=ORIENTED_EDGE('',*,*,#118,.F.);
#157=ORIENTED_EDGE('',*,*,#126,.T.);
#158=ORIENTED_EDGE('',*,*,#122,.T.);
#159=ORIENTED_EDGE('',*,*,#125,.F.);
#160=ORIENTED_EDGE('',*,*,#127,.T.);
#161=ORIENTED_EDGE('',*,*,#128,.F.);
#162=ORIENTED_EDGE('',*,*,#129,.F.);
#163=ORIENTED_EDGE('',*,*,#121,.F.);
#164=ORIENTED_EDGE('',*,*,#130,.T.);
#165=ORIENTED_EDGE('',*,*,#131,.F.);
#166=ORIENTED_EDGE('',*,*,#127,.F.);
#167=ORIENTED_EDGE('',*,*,#119,.F.);
#168=ORIENTED_EDGE('',*,*,#126,.F.);
#169=ORIENTED_EDGE('',*,*,#117,.F.);
#170=ORIENTED_EDGE('',*,*,#124,.F.);
#171=ORIENTED_EDGE('',*,*,#132,.T.);
#172=ORIENTED_EDGE('',*,*,#133,.T.);
#173=ORIENTED_EDGE('',*,*,#131,.T.);
#174=ORIENTED_EDGE('',*,*,#134,.F.);
#175=ORIENTED_EDGE('',*,*,#135,.T.);
#176=ORIENTED_EDGE('',*,*,#136,.T.);
#177=ORIENTED_EDGE('',*,*,#128,.T.);
#178=ORIENTED_EDGE('',*,*,#133,.F.);
#179=ORIENTED_EDGE('',*,*,#137,.T.);
#180=ORIENTED_EDGE('',*,*,#138,.T.);
#181=ORIENTED_EDGE('',*,*,#139,.T.);
#182=ORIENTED_EDGE('',*,*,#136,.F.);
#183=ORIENTED_EDGE('',*,*,#140,.T.);
#184=ORIENTED_EDGE('',*,*,#138,.F.);
#185=ORIENTED_EDGE('',*,*,#141,.T.);
#186=ORIENTED_EDGE('',*,*,#134,.T.);
#187=ORIENTED_EDGE('',*,*,#123,.F.);
#188=ORIENTED_EDGE('',*,*,#142,.T.);
#189=ORIENTED_EDGE('',*,*,#140,.F.);
#190=ORIENTED_EDGE('',*,*,#130,.F.);
#191=ORIENTED_EDGE('',*,*,#132,.F.);
#192=ORIENTED_EDGE('',*,*,#141,.F.);
#193=ORIENTED_EDGE('',*,*,#137,.F.);
#194=ORIENTED_EDGE('',*,*,#135,.F.);
#195=ORIENTED_EDGE('',*,*,#115,.F.);
#196=ORIENTED_EDGE('',*,*,#129,.T.);
#197=ORIENTED_EDGE('',*,*,#139,.F.);
#198=ORIENTED_EDGE('',*,*,#142,.F.);
#199=PLANE('',#241);
#200=PLANE('',#242);
#201=PLANE('',#243);
#202=PLANE('',#244);
#203=PLANE('',#245);
#204=PLANE('',#246);
#205=PLANE('',#247);
#206=PLANE('',#248);
#207=PLANE('',#249);
#208=PLANE('',#250);
#209=PLANE('',#251);
#210=PLANE('',#252);
#211=PLANE('',#253);
#212=PLANE('',#254);
#213=ADVANCED_FACE('',(#15),#199,.T.);
#214=ADVANCED_FACE('',(#16),#200,.T.);
#215=ADVANCED_FACE('',(#17),#201,.T.);
#216=ADVANCED_FACE('',(#18),#202,.T.);
#217=ADVANCED_FACE('',(#19),#203,.T.);
#218=ADVANCED_FACE('',(#20),#204,.T.);
#219=ADVANCED_FACE('',(#21),#205,.F.);
#220=ADVANCED_FACE('',(#22),#206,.T.);
#221=ADVANCED_FACE('',(#23),#207,.T.);
#222=ADVANCED_FACE('',(#24),#208,.T.);
#223=ADVANCED_FACE('',(#25),#209,.T.);
#224=ADVANCED_FACE('',(#26),#210,.T.);
#225=ADVANCED_FACE('',(#27),#211,.T.);
#226=ADVANCED_FACE('',(#28),#212,.T.);
#227=CLOSED_SHELL('',(#213,#214,#215,#216,#217,#218,#219,#220,#221,#222,
#223,#224,#225,#226));
#228=DERIVED_UNIT_ELEMENT(#230,1.);
#229=DERIVED_UNIT_ELEMENT(#377,-3.);
#230=(
MASS_UNIT()
NAMED_UNIT(*)
SI_UNIT(.KILO.,.GRAM.)
);
#231=DERIVED_UNIT((#228,#229));
#232=MEASURE_REPRESENTATION_ITEM('density measure',
POSITIVE_RATIO_MEASURE(7850.),#231);
#233=PROPERTY_DEFINITION_REPRESENTATION(#238,#235);
#234=PROPERTY_DEFINITION_REPRESENTATION(#239,#236);
#235=REPRESENTATION('material name',(#237),#374);
#236=REPRESENTATION('density',(#232),#374);
#237=DESCRIPTIVE_REPRESENTATION_ITEM('Steel','Steel');
#238=PROPERTY_DEFINITION('material property','material name',#384);
#239=PROPERTY_DEFINITION('material property','density of part',#384);
#240=AXIS2_PLACEMENT_3D('placement',#313,#255,#256);
#241=AXIS2_PLACEMENT_3D('',#314,#257,#258);
#242=AXIS2_PLACEMENT_3D('',#323,#263,#264);
#243=AXIS2_PLACEMENT_3D('',#332,#269,#270);
#244=AXIS2_PLACEMENT_3D('',#335,#273,#274);
#245=AXIS2_PLACEMENT_3D('',#338,#277,#278);
#246=AXIS2_PLACEMENT_3D('',#344,#282,#283);
#247=AXIS2_PLACEMENT_3D('',#348,#286,#287);
#248=AXIS2_PLACEMENT_3D('',#349,#288,#289);
#249=AXIS2_PLACEMENT_3D('',#355,#293,#294);
#250=AXIS2_PLACEMENT_3D('',#359,#297,#298);
#251=AXIS2_PLACEMENT_3D('',#365,#302,#303);
#252=AXIS2_PLACEMENT_3D('',#368,#306,#307);
#253=AXIS2_PLACEMENT_3D('',#370,#309,#310);
#254=AXIS2_PLACEMENT_3D('',#371,#311,#312);
#255=DIRECTION('axis',(0.,0.,1.));
#256=DIRECTION('refdir',(1.,0.,0.));
#257=DIRECTION('center_axis',(0.707106781186549,0.,-0.707106781186546));
#258=DIRECTION('ref_axis',(-0.707106781186546,0.,-0.707106781186549));
#259=DIRECTION('',(0.,-1.,0.));
#260=DIRECTION('',(-0.577350269189622,0.577350269189627,-0.577350269189629));
#261=DIRECTION('',(0.,1.,0.));
#262=DIRECTION('',(0.577350269189625,0.577350269189625,0.577350269189627));
#263=DIRECTION('center_axis',(-0.707106781186549,0.,-0.707106781186546));
#264=DIRECTION('ref_axis',(-0.707106781186546,0.,0.707106781186549));
#265=DIRECTION('',(0.,-1.,0.));
#266=DIRECTION('',(-0.577350269189625,-0.577350269189625,0.577350269189627));
#267=DIRECTION('',(0.,1.,0.));
#268=DIRECTION('',(-0.577350269189625,0.577350269189625,0.577350269189627));
#269=DIRECTION('center_axis',(0.,-0.707106781186549,-0.707106781186546));
#270=DIRECTION('ref_axis',(-1.,0.,0.));
#271=DIRECTION('',(-1.,0.,0.));
#272=DIRECTION('',(1.,0.,0.));
#273=DIRECTION('center_axis',(0.,0.707106781186549,-0.707106781186546));
#274=DIRECTION('ref_axis',(-1.,0.,0.));
#275=DIRECTION('',(1.,0.,0.));
#276=DIRECTION('',(-1.,0.,0.));
#277=DIRECTION('center_axis',(0.,1.,0.));
#278=DIRECTION('ref_axis',(-1.,0.,0.));
#279=DIRECTION('',(0.,0.,1.));
#280=DIRECTION('',(-1.,0.,0.));
#281=DIRECTION('',(0.,0.,1.));
#282=DIRECTION('center_axis',(-1.,0.,0.));
#283=DIRECTION('ref_axis',(0.,-1.,0.));
#284=DIRECTION('',(0.,0.,1.));
#285=DIRECTION('',(0.,-1.,0.));
#286=DIRECTION('center_axis',(0.,0.,1.));
#287=DIRECTION('ref_axis',(1.,0.,0.));
#288=DIRECTION('center_axis',(-0.707106781186549,0.,0.707106781186546));
#289=DIRECTION('ref_axis',(0.707106781186546,0.,0.707106781186549));
#290=DIRECTION('',(0.,1.,0.));
#291=DIRECTION('',(-0.577350269189622,0.577350269189627,-0.577350269189629));
#292=DIRECTION('',(-0.577350269189625,-0.577350269189625,-0.577350269189627));
#293=DIRECTION('center_axis',(0.,0.707106781186549,0.707106781186546));
#294=DIRECTION('ref_axis',(1.,0.,0.));
#295=DIRECTION('',(1.,0.,0.));
#296=DIRECTION('',(0.577350269189625,0.577350269189625,-0.577350269189627));
#297=DIRECTION('center_axis',(0.707106781186549,0.,0.707106781186546));
#298=DIRECTION('ref_axis',(0.707106781186546,0.,-0.707106781186549));
#299=DIRECTION('',(0.,-1.,0.));
#300=DIRECTION('',(0.577350269189622,-0.577350269189627,-0.577350269189629));
#301=DIRECTION('',(0.,1.,0.));
#302=DIRECTION('center_axis',(0.,-0.707106781186549,0.707106781186546));
#303=DIRECTION('ref_axis',(1.,0.,0.));
#304=DIRECTION('',(1.,0.,0.));
#305=DIRECTION('',(-1.,0.,0.));
#306=DIRECTION('center_axis',(0.,-1.,0.));
#307=DIRECTION('ref_axis',(1.,0.,0.));
#308=DIRECTION('',(0.,0.,1.));
#309=DIRECTION('center_axis',(0.,0.,1.));
#310=DIRECTION('ref_axis',(1.,0.,0.));
#311=DIRECTION('center_axis',(1.,0.,0.));
#312=DIRECTION('ref_axis',(0.,1.,0.));
#313=CARTESIAN_POINT('',(0.,0.,0.));
#314=CARTESIAN_POINT('Origin',(24.75,-12.5,0.25));
#315=CARTESIAN_POINT('',(25.,25.,0.5));
#316=CARTESIAN_POINT('',(25.,-25.,0.5));
#317=CARTESIAN_POINT('',(25.,-12.5,0.5));
#318=CARTESIAN_POINT('',(24.5,-24.5,0.));
#319=CARTESIAN_POINT('',(25.,-25.,0.5));
#320=CARTESIAN_POINT('',(24.5,24.5,0.));
#321=CARTESIAN_POINT('',(24.5,-12.5,0.));
#322=CARTESIAN_POINT('',(24.5,24.5,0.));
#323=CARTESIAN_POINT('Origin',(-24.75,12.5,0.25));
#324=CARTESIAN_POINT('',(-24.5,24.5,0.));
#325=CARTESIAN_POINT('',(-24.5,-24.5,0.));
#326=CARTESIAN_POINT('',(-24.5,12.5,0.));
#327=CARTESIAN_POINT('',(-25.,-25.,0.5));
#328=CARTESIAN_POINT('',(-24.5,-24.5,0.));
#329=CARTESIAN_POINT('',(-25.,25.,0.5));
#330=CARTESIAN_POINT('',(-25.,12.5,0.5));
#331=CARTESIAN_POINT('',(-24.5,24.5,0.));
#332=CARTESIAN_POINT('Origin',(-12.5,-24.75,0.25));
#333=CARTESIAN_POINT('',(-12.5,-25.,0.5));
#334=CARTESIAN_POINT('',(-12.5,-24.5,0.));
#335=CARTESIAN_POINT('Origin',(12.5,24.75,0.25));
#336=CARTESIAN_POINT('',(12.5,25.,0.5));
#337=CARTESIAN_POINT('',(12.5,24.5,0.));
#338=CARTESIAN_POINT('Origin',(25.,25.,0.));
#339=CARTESIAN_POINT('',(-25.,25.,4.5));
#340=CARTESIAN_POINT('',(-25.,25.,0.));
#341=CARTESIAN_POINT('',(25.,25.,4.5));
#342=CARTESIAN_POINT('',(12.5,25.,4.5));
#343=CARTESIAN_POINT('',(25.,25.,0.));
#344=CARTESIAN_POINT('Origin',(-25.,25.,0.));
#345=CARTESIAN_POINT('',(-25.,-25.,4.5));
#346=CARTESIAN_POINT('',(-25.,-25.,0.));
#347=CARTESIAN_POINT('',(-25.,12.5,4.5));
#348=CARTESIAN_POINT('Origin',(0.,0.,0.));
#349=CARTESIAN_POINT('Origin',(-24.75,12.5,4.75));
#350=CARTESIAN_POINT('',(-24.5,-24.5,5.));
#351=CARTESIAN_POINT('',(-24.5,24.5,5.));
#352=CARTESIAN_POINT('',(-24.5,12.5,5.));
#353=CARTESIAN_POINT('',(-24.5,24.5,5.));
#354=CARTESIAN_POINT('',(-24.5,-24.5,5.));
#355=CARTESIAN_POINT('Origin',(12.5,24.75,4.75));
#356=CARTESIAN_POINT('',(24.5,24.5,5.));
#357=CARTESIAN_POINT('',(12.5,24.5,5.));
#358=CARTESIAN_POINT('',(24.5,24.5,5.));
#359=CARTESIAN_POINT('Origin',(24.75,-12.5,4.75));
#360=CARTESIAN_POINT('',(24.5,-24.5,5.));
#361=CARTESIAN_POINT('',(24.5,-12.5,5.));
#362=CARTESIAN_POINT('',(25.,-25.,4.5));
#363=CARTESIAN_POINT('',(24.5,-24.5,5.));
#364=CARTESIAN_POINT('',(25.,-12.5,4.5));
#365=CARTESIAN_POINT('Origin',(-12.5,-24.75,4.75));
#366=CARTESIAN_POINT('',(-12.5,-25.,4.5));
#367=CARTESIAN_POINT('',(-12.5,-24.5,5.));
#368=CARTESIAN_POINT('Origin',(-25.,-25.,0.));
#369=CARTESIAN_POINT('',(25.,-25.,0.));
#370=CARTESIAN_POINT('Origin',(0.,0.,5.));
#371=CARTESIAN_POINT('Origin',(25.,-25.,0.));
#372=UNCERTAINTY_MEASURE_WITH_UNIT(LENGTH_MEASURE(0.01),#376,
'DISTANCE_ACCURACY_VALUE',
'Maximum model space distance between geometric entities at asserted c
onnectivities');
#373=UNCERTAINTY_MEASURE_WITH_UNIT(LENGTH_MEASURE(0.01),#376,
'DISTANCE_ACCURACY_VALUE',
'Maximum model space distance between geometric entities at asserted c
onnectivities');
#374=(
GEOMETRIC_REPRESENTATION_CONTEXT(3)
GLOBAL_UNCERTAINTY_ASSIGNED_CONTEXT((#372))
GLOBAL_UNIT_ASSIGNED_CONTEXT((#376,#378,#379))
REPRESENTATION_CONTEXT('','3D')
);
#375=(
GEOMETRIC_REPRESENTATION_CONTEXT(3)
GLOBAL_UNCERTAINTY_ASSIGNED_CONTEXT((#373))
GLOBAL_UNIT_ASSIGNED_CONTEXT((#376,#378,#379))
REPRESENTATION_CONTEXT('','3D')
);
#376=(
LENGTH_UNIT()
NAMED_UNIT(*)
SI_UNIT(.MILLI.,.METRE.)
);
#377=(
LENGTH_UNIT()
NAMED_UNIT(*)
SI_UNIT($,.METRE.)
);
#378=(
NAMED_UNIT(*)
PLANE_ANGLE_UNIT()
SI_UNIT($,.RADIAN.)
);
#379=(
NAMED_UNIT(*)
SI_UNIT($,.STERADIAN.)
SOLID_ANGLE_UNIT()
);
#380=SHAPE_DEFINITION_REPRESENTATION(#381,#382);
#381=PRODUCT_DEFINITION_SHAPE('',$,#384);
#382=SHAPE_REPRESENTATION('',(#240),#374);
#383=PRODUCT_DEFINITION_CONTEXT('part definition',#388,'design');
#384=PRODUCT_DEFINITION('50x5mm SQ 0_5CHAM','50x5mm SQ 0_5CHAM v1',#385,
#383);
#385=PRODUCT_DEFINITION_FORMATION('',$,#390);
#386=PRODUCT_RELATED_PRODUCT_CATEGORY('50x5mm SQ 0_5CHAM v1',
'50x5mm SQ 0_5CHAM v1',(#390));
#387=APPLICATION_PROTOCOL_DEFINITION('international standard',
'automotive_design',2009,#388);
#388=APPLICATION_CONTEXT(
'Core Data for Automotive Mechanical Design Process');
#389=PRODUCT_CONTEXT('part definition',#388,'mechanical');
#390=PRODUCT('50x5mm SQ 0_5CHAM','50x5mm SQ 0_5CHAM v1',$,(#389));
#391=PRESENTATION_STYLE_ASSIGNMENT((#392));
#392=SURFACE_STYLE_USAGE(.BOTH.,#393);
#393=SURFACE_SIDE_STYLE('',(#394));
#394=SURFACE_STYLE_FILL_AREA(#395);
#395=FILL_AREA_STYLE('Steel - Satin',(#396));
#396=FILL_AREA_STYLE_COLOUR('Steel - Satin',#397);
#397=COLOUR_RGB('Steel - Satin',0.627450980392157,0.627450980392157,0.627450980392157);
ENDSEC;
END-ISO-10303-21;
