ISO-10303-21;
HEADER;
FILE_DESCRIPTION (( 'STEP AP203' ),
    '1' );
FILE_NAME ('Web Model 83367_83367.step',
    '2017-04-26T17:47:01',
    ( '' ),
    ( '' ),
    'SwSTEP 2.0',
    'SolidWorks 2016',
    '' );
FILE_SCHEMA (( 'CONFIG_CONTROL_DESIGN' ));
ENDSEC;

DATA;
#1 = DIRECTION ( 'NONE',  ( -1.000000000000000000, 0.0000000000000000000, 0.0000000000000000000 ) ) ;
#2 = DATE_AND_TIME ( #51, #112 ) ;
#3 = FACE_OUTER_BOUND ( 'NONE', #80, .T. ) ;
#4 = ORIENTED_EDGE ( 'NONE', *, *, #29, .T. ) ;
#5 = PRODUCT_DEFINITION ( 'UNKNOWN', '', #172, #104 ) ;
#6 = CALENDAR_DATE ( 2017, 26, 4 ) ;
#7 = EDGE_LOOP ( 'NONE', ( #34, #156, #178, #165 ) ) ;
#8 = DIRECTION ( 'NONE',  ( -0.0000000000000000000, -1.000000000000000000, -0.0000000000000000000 ) ) ;
#9 = APPROVAL_DATE_TIME ( #105, #88 ) ;
#10 = ORIENTED_EDGE ( 'NONE', *, *, #86, .T. ) ;
#11 = EDGE_CURVE ( 'NONE', #211, #26, #65, .T. ) ;
#12 =( NAMED_UNIT ( * ) PLANE_ANGLE_UNIT ( ) SI_UNIT ( $, .RADIAN. ) );
#13 = PERSON_AND_ORGANIZATION_ROLE ( 'creator' ) ;
#14 = CC_DESIGN_APPROVAL ( #114, ( #5 ) ) ;
#15 = ORIENTED_EDGE ( 'NONE', *, *, #11, .F. ) ;
#16 = LINE ( 'NONE', #129, #190 ) ;
#17 = ADVANCED_FACE ( 'NONE', ( #168 ), #49, .F. ) ;
#18 = VECTOR ( 'NONE', #60, 1000.000000000000000 ) ;
#19 = PRODUCT_RELATED_PRODUCT_CATEGORY ( 'detail', '', ( #110 ) ) ;
#20 = VECTOR ( 'NONE', #186, 1000.000000000000000 ) ;
#21 = MANIFOLD_SOLID_BREP ( 'Boss-Extrude1', #45 ) ;
#22 = DATE_AND_TIME ( #91, #35 ) ;
#23 = DIRECTION ( 'NONE',  ( -1.000000000000000000, -2.081668171172168500E-016, 0.0000000000000000000 ) ) ;
#24 = APPROVAL_STATUS ( 'not_yet_approved' ) ;
#25 = PERSON_AND_ORGANIZATION ( #130, #173 ) ;
#26 = VERTEX_POINT ( 'NONE', #64 ) ;
#27 = CARTESIAN_POINT ( 'NONE',  ( 50.00000000000000700, 50.00000000000000700, 1.100000000000000100 ) ) ;
#28 = DIRECTION ( 'NONE',  ( 1.000000000000000000, 0.0000000000000000000, -0.0000000000000000000 ) ) ;
#29 = EDGE_CURVE ( 'NONE', #26, #144, #124, .T. ) ;
#30 = LINE ( 'NONE', #119, #227 ) ;
#31 = UNCERTAINTY_MEASURE_WITH_UNIT (LENGTH_MEASURE( 1.000000000000000100E-005 ), #74, 'distance_accuracy_value', 'NONE');
#32 = DIRECTION ( 'NONE',  ( -2.775557561562891400E-016, 1.000000000000000000, 0.0000000000000000000 ) ) ;
#33 = LINE ( 'NONE', #218, #113 ) ;
#34 = ORIENTED_EDGE ( 'NONE', *, *, #171, .T. ) ;
#35 = LOCAL_TIME ( 13, 47, 1.000000000000000000, #224 ) ;
#36 = EDGE_CURVE ( 'NONE', #78, #211, #16, .T. ) ;
#37 = ADVANCED_FACE ( 'NONE', ( #145 ), #143, .F. ) ;
#38 = ORIENTED_EDGE ( 'NONE', *, *, #170, .F. ) ;
#39 = COORDINATED_UNIVERSAL_TIME_OFFSET ( 5, 0, .BEHIND. ) ;
#40 = DIRECTION ( 'NONE',  ( 1.000000000000000000, 0.0000000000000000000, 0.0000000000000000000 ) ) ;
#41 = DIRECTION ( 'NONE',  ( -0.0000000000000000000, -0.0000000000000000000, -1.000000000000000000 ) ) ;
#42 = LINE ( 'NONE', #179, #18 ) ;
#43 = LINE ( 'NONE', #231, #148 ) ;
#44 = EDGE_LOOP ( 'NONE', ( #97, #38, #149, #127 ) ) ;
#45 = CLOSED_SHELL ( 'NONE', ( #17, #191, #37, #53, #208, #50 ) ) ;
#46 = DIRECTION ( 'NONE',  ( 0.0000000000000000000, 1.000000000000000000, 0.0000000000000000000 ) ) ;
#47 = APPROVAL_PERSON_ORGANIZATION ( #195, #88, #199 ) ;
#48 = PERSON_AND_ORGANIZATION_ROLE ( 'design_owner' ) ;
#49 = PLANE ( 'NONE',  #223 ) ;
#50 = ADVANCED_FACE ( 'NONE', ( #107 ), #214, .F. ) ;
#51 = CALENDAR_DATE ( 2017, 26, 4 ) ;
#52 = VECTOR ( 'NONE', #209, 1000.000000000000000 ) ;
#53 = ADVANCED_FACE ( 'NONE', ( #103 ), #57, .F. ) ;
#54 = ORIENTED_EDGE ( 'NONE', *, *, #115, .F. ) ;
#55 = DIRECTION ( 'NONE',  ( 0.0000000000000000000, 0.0000000000000000000, -1.000000000000000000 ) ) ;
#56 = DIRECTION ( 'NONE',  ( 1.000000000000000000, 0.0000000000000000000, 0.0000000000000000000 ) ) ;
#57 = PLANE ( 'NONE',  #126 ) ;
#58 = CALENDAR_DATE ( 2017, 26, 4 ) ;
#59 = VERTEX_POINT ( 'NONE', #153 ) ;
#60 = DIRECTION ( 'NONE',  ( -0.0000000000000000000, -0.0000000000000000000, -1.000000000000000000 ) ) ;
#61 = PERSON_AND_ORGANIZATION ( #130, #173 ) ;
#62 = DIRECTION ( 'NONE',  ( 1.000000000000000000, 2.775557561562891400E-016, -0.0000000000000000000 ) ) ;
#63 = AXIS2_PLACEMENT_3D ( 'NONE', #207, #75, #40 ) ;
#64 = CARTESIAN_POINT ( 'NONE',  ( 50.00000000000000700, -49.99999999999998600, 1.100000000000000100 ) ) ;
#65 = LINE ( 'NONE', #131, #167 ) ;
#66 = MECHANICAL_CONTEXT ( 'NONE', #102, 'mechanical' ) ;
#67 = CC_DESIGN_PERSON_AND_ORGANIZATION_ASSIGNMENT ( #189, #226, ( #172 ) ) ;
#68 = CARTESIAN_POINT ( 'NONE',  ( -49.99999999999999300, -50.00000000000001400, 0.0000000000000000000 ) ) ;
#69 = APPLICATION_PROTOCOL_DEFINITION ( 'international standard', 'config_control_design', 1994, #102 ) ;
#70 =( NAMED_UNIT ( * ) SI_UNIT ( $, .STERADIAN. ) SOLID_ANGLE_UNIT ( ) );
#71 = CC_DESIGN_PERSON_AND_ORGANIZATION_ASSIGNMENT ( #140, #162, ( #172 ) ) ;
#72 = ORIENTED_EDGE ( 'NONE', *, *, #197, .F. ) ;
#73 = DIRECTION ( 'NONE',  ( -0.0000000000000000000, -0.0000000000000000000, -1.000000000000000000 ) ) ;
#74 =( LENGTH_UNIT ( ) NAMED_UNIT ( * ) SI_UNIT ( .MILLI., .METRE. ) );
#75 = DIRECTION ( 'NONE',  ( 0.0000000000000000000, 0.0000000000000000000, 1.000000000000000000 ) ) ;
#76 = APPROVAL_DATE_TIME ( #22, #217 ) ;
#77 = VERTEX_POINT ( 'NONE', #154 ) ;
#78 = VERTEX_POINT ( 'NONE', #216 ) ;
#79 = CARTESIAN_POINT ( 'NONE',  ( 50.00000000000000700, -49.99999999999998600, 0.0000000000000000000 ) ) ;
#80 = EDGE_LOOP ( 'NONE', ( #87, #117, #15, #10 ) ) ;
#81 = DATE_AND_TIME ( #164, #210 ) ;
#82 = APPROVAL_ROLE ( '' ) ;
#83 = PERSON_AND_ORGANIZATION_ROLE ( 'classification_officer' ) ;
#84 = APPLICATION_CONTEXT ( 'configuration controlled 3d designs of mechanical parts and assemblies' ) ;
#85 = CC_DESIGN_APPROVAL ( #217, ( #138 ) ) ;
#86 = EDGE_CURVE ( 'NONE', #211, #59, #42, .T. ) ;
#87 = ORIENTED_EDGE ( 'NONE', *, *, #115, .T. ) ;
#88 = APPROVAL ( #181, 'UNSPECIFIED' ) ;
#89 = DIRECTION ( 'NONE',  ( 0.0000000000000000000, 0.0000000000000000000, 1.000000000000000000 ) ) ;
#90 = AXIS2_PLACEMENT_3D ( 'NONE', #134, #142, #118 ) ;
#91 = CALENDAR_DATE ( 2017, 26, 4 ) ;
#92 = LINE ( 'NONE', #79, #141 ) ;
#93 = APPLICATION_PROTOCOL_DEFINITION ( 'international standard', 'config_control_design', 1994, #84 ) ;
#94 = DIRECTION ( 'NONE',  ( -1.000000000000000000, -2.081668171172168500E-016, 0.0000000000000000000 ) ) ;
#95 = VECTOR ( 'NONE', #73, 1000.000000000000000 ) ;
#96 = ORIENTED_EDGE ( 'NONE', *, *, #229, .T. ) ;
#97 = ORIENTED_EDGE ( 'NONE', *, *, #197, .T. ) ;
#98 = LOCAL_TIME ( 13, 47, 1.000000000000000000, #204 ) ;
#99 = VECTOR ( 'NONE', #46, 1000.000000000000000 ) ;
#100 = AXIS2_PLACEMENT_3D ( 'NONE', #128, #1, #89 ) ;
#101 = DATE_AND_TIME ( #6, #98 ) ;
#102 = APPLICATION_CONTEXT ( 'configuration controlled 3d designs of mechanical parts and assemblies' ) ;
#103 = FACE_OUTER_BOUND ( 'NONE', #44, .T. ) ;
#104 = DESIGN_CONTEXT ( 'detailed design', #84, 'design' ) ;
#105 = DATE_AND_TIME ( #58, #200 ) ;
#106 = CC_DESIGN_PERSON_AND_ORGANIZATION_ASSIGNMENT ( #61, #48, ( #110 ) ) ;
#107 = FACE_OUTER_BOUND ( 'NONE', #234, .T. ) ;
#108 = LINE ( 'NONE', #146, #133 ) ;
#109 = ORIENTED_EDGE ( 'NONE', *, *, #180, .F. ) ;
#110 = PRODUCT ( 'Web Model 83367_83367', 'Web Model 83367_83367', '', ( #66 ) ) ;
#111 = DIRECTION ( 'NONE',  ( -1.000000000000000000, -2.775557561562891400E-016, 0.0000000000000000000 ) ) ;
#112 = LOCAL_TIME ( 13, 47, 1.000000000000000000, #160 ) ;
#113 = VECTOR ( 'NONE', #94, 1000.000000000000000 ) ;
#114 = APPROVAL ( #132, 'UNSPECIFIED' ) ;
#115 = EDGE_CURVE ( 'NONE', #59, #136, #92, .T. ) ;
#116 = LINE ( 'NONE', #68, #52 ) ;
#117 = ORIENTED_EDGE ( 'NONE', *, *, #229, .F. ) ;
#118 = DIRECTION ( 'NONE',  ( 1.000000000000000000, 0.0000000000000000000, -0.0000000000000000000 ) ) ;
#119 = CARTESIAN_POINT ( 'NONE',  ( 50.00000000000000700, 50.00000000000000700, 1.100000000000000100 ) ) ;
#120 = CARTESIAN_POINT ( 'NONE',  ( 50.00000000000000700, 50.00000000000000700, 0.0000000000000000000 ) ) ;
#121 = DIRECTION ( 'NONE',  ( 0.0000000000000000000, -0.0000000000000000000, 1.000000000000000000 ) ) ;
#122 = ORIENTED_EDGE ( 'NONE', *, *, #151, .T. ) ;
#123 = DIRECTION ( 'NONE',  ( 1.000000000000000000, 2.775557561562891400E-016, -0.0000000000000000000 ) ) ;
#124 = LINE ( 'NONE', #235, #99 ) ;
#125 = SHAPE_DEFINITION_REPRESENTATION ( #176, #202 ) ;
#126 = AXIS2_PLACEMENT_3D ( 'NONE', #177, #194, #182 ) ;
#127 = ORIENTED_EDGE ( 'NONE', *, *, #180, .T. ) ;
#128 = CARTESIAN_POINT ( 'NONE',  ( 50.00000000000000700, -49.99999999999998600, 1.100000000000000100 ) ) ;
#129 = CARTESIAN_POINT ( 'NONE',  ( -49.99999999999999300, -50.00000000000001400, 1.100000000000000100 ) ) ;
#130 = PERSON ( 'UNSPECIFIED', 'UNSPECIFIED', 'UNSPECIFIED', ('UNSPECIFIED'), ('UNSPECIFIED'), ('UNSPECIFIED') ) ;
#131 = CARTESIAN_POINT ( 'NONE',  ( 50.00000000000000700, -49.99999999999998600, 1.100000000000000100 ) ) ;
#132 = APPROVAL_STATUS ( 'not_yet_approved' ) ;
#133 = VECTOR ( 'NONE', #41, 1000.000000000000000 ) ;
#134 = CARTESIAN_POINT ( 'NONE',  ( 0.0000000000000000000, 0.0000000000000000000, 1.100000000000000100 ) ) ;
#135 = PERSON_AND_ORGANIZATION ( #130, #173 ) ;
#136 = VERTEX_POINT ( 'NONE', #233 ) ;
#137 = CC_DESIGN_PERSON_AND_ORGANIZATION_ASSIGNMENT ( #228, #83, ( #138 ) ) ;
#138 = SECURITY_CLASSIFICATION ( '', '', #139 ) ;
#139 = SECURITY_CLASSIFICATION_LEVEL ( 'unclassified' ) ;
#140 = PERSON_AND_ORGANIZATION ( #130, #173 ) ;
#141 = VECTOR ( 'NONE', #62, 1000.000000000000000 ) ;
#142 = DIRECTION ( 'NONE',  ( 0.0000000000000000000, -0.0000000000000000000, 1.000000000000000000 ) ) ;
#143 = PLANE ( 'NONE',  #100 ) ;
#144 = VERTEX_POINT ( 'NONE', #27 ) ;
#145 = FACE_OUTER_BOUND ( 'NONE', #225, .T. ) ;
#146 = CARTESIAN_POINT ( 'NONE',  ( 50.00000000000000700, 50.00000000000000700, 1.100000000000000100 ) ) ;
#147 = CC_DESIGN_DATE_AND_TIME_ASSIGNMENT ( #81, #212, ( #138 ) ) ;
#148 = VECTOR ( 'NONE', #192, 1000.000000000000000 ) ;
#149 = ORIENTED_EDGE ( 'NONE', *, *, #151, .F. ) ;
#150 = AXIS2_PLACEMENT_3D ( 'NONE', #174, #121, #28 ) ;
#151 = EDGE_CURVE ( 'NONE', #144, #78, #30, .T. ) ;
#152 = COORDINATED_UNIVERSAL_TIME_OFFSET ( 5, 0, .BEHIND. ) ;
#153 = CARTESIAN_POINT ( 'NONE',  ( -49.99999999999999300, -50.00000000000001400, 0.0000000000000000000 ) ) ;
#154 = CARTESIAN_POINT ( 'NONE',  ( -49.99999999999999300, 49.99999999999998600, 0.0000000000000000000 ) ) ;
#155 = APPROVAL_PERSON_ORGANIZATION ( #25, #114, #82 ) ;
#156 = ORIENTED_EDGE ( 'NONE', *, *, #86, .F. ) ;
#157 = ORIENTED_EDGE ( 'NONE', *, *, #215, .F. ) ;
#158 = ORIENTED_EDGE ( 'NONE', *, *, #215, .T. ) ;
#159 = CC_DESIGN_DATE_AND_TIME_ASSIGNMENT ( #2, #188, ( #5 ) ) ;
#160 = COORDINATED_UNIVERSAL_TIME_OFFSET ( 5, 0, .BEHIND. ) ;
#161 = LINE ( 'NONE', #198, #95 ) ;
#162 = PERSON_AND_ORGANIZATION_ROLE ( 'creator' ) ;
#163 = CC_DESIGN_PERSON_AND_ORGANIZATION_ASSIGNMENT ( #237, #13, ( #5 ) ) ;
#164 = CALENDAR_DATE ( 2017, 26, 4 ) ;
#165 = ORIENTED_EDGE ( 'NONE', *, *, #170, .T. ) ;
#166 =( GEOMETRIC_REPRESENTATION_CONTEXT ( 3 ) GLOBAL_UNCERTAINTY_ASSIGNED_CONTEXT ( ( #31 ) ) GLOBAL_UNIT_ASSIGNED_CONTEXT ( ( #74, #12, #70 ) ) REPRESENTATION_CONTEXT ( 'NONE', 'WORKASPACE' ) );
#167 = VECTOR ( 'NONE', #123, 1000.000000000000000 ) ;
#168 = FACE_OUTER_BOUND ( 'NONE', #7, .T. ) ;
#169 = CARTESIAN_POINT ( 'NONE',  ( 50.00000000000000700, -49.99999999999998600, 1.100000000000000100 ) ) ;
#170 = EDGE_CURVE ( 'NONE', #78, #77, #43, .T. ) ;
#171 = EDGE_CURVE ( 'NONE', #77, #59, #116, .T. ) ;
#172 = PRODUCT_DEFINITION_FORMATION_WITH_SPECIFIED_SOURCE ( 'ANY', '', #110, .NOT_KNOWN. ) ;
#173 = ORGANIZATION ( 'UNSPECIFIED', 'UNSPECIFIED', '' ) ;
#174 = CARTESIAN_POINT ( 'NONE',  ( 0.0000000000000000000, 0.0000000000000000000, 0.0000000000000000000 ) ) ;
#175 = EDGE_LOOP ( 'NONE', ( #183, #196, #4, #122 ) ) ;
#176 = PRODUCT_DEFINITION_SHAPE ( 'NONE', 'NONE',  #5 ) ;
#177 = CARTESIAN_POINT ( 'NONE',  ( 50.00000000000000700, 50.00000000000000700, 1.100000000000000100 ) ) ;
#178 = ORIENTED_EDGE ( 'NONE', *, *, #36, .F. ) ;
#179 = CARTESIAN_POINT ( 'NONE',  ( -49.99999999999999300, -50.00000000000001400, 1.100000000000000100 ) ) ;
#180 = EDGE_CURVE ( 'NONE', #144, #222, #108, .T. ) ;
#181 = APPROVAL_STATUS ( 'not_yet_approved' ) ;
#182 = DIRECTION ( 'NONE',  ( 1.000000000000000000, 2.081668171172168500E-016, 0.0000000000000000000 ) ) ;
#183 = ORIENTED_EDGE ( 'NONE', *, *, #36, .T. ) ;
#184 = APPROVAL_PERSON_ORGANIZATION ( #135, #217, #213 ) ;
#185 = PLANE ( 'NONE',  #90 ) ;
#186 = DIRECTION ( 'NONE',  ( 0.0000000000000000000, 1.000000000000000000, 0.0000000000000000000 ) ) ;
#187 = AXIS2_PLACEMENT_3D ( 'NONE', #169, #32, #111 ) ;
#188 = DATE_TIME_ROLE ( 'creation_date' ) ;
#189 = PERSON_AND_ORGANIZATION ( #130, #173 ) ;
#190 = VECTOR ( 'NONE', #8, 1000.000000000000000 ) ;
#191 = ADVANCED_FACE ( 'NONE', ( #3 ), #205, .F. ) ;
#192 = DIRECTION ( 'NONE',  ( -0.0000000000000000000, -0.0000000000000000000, -1.000000000000000000 ) ) ;
#193 = CARTESIAN_POINT ( 'NONE',  ( 50.00000000000000700, -49.99999999999998600, 0.0000000000000000000 ) ) ;
#194 = DIRECTION ( 'NONE',  ( 2.081668171172168500E-016, -1.000000000000000000, 0.0000000000000000000 ) ) ;
#195 = PERSON_AND_ORGANIZATION ( #130, #173 ) ;
#196 = ORIENTED_EDGE ( 'NONE', *, *, #11, .T. ) ;
#197 = EDGE_CURVE ( 'NONE', #222, #77, #33, .T. ) ;
#198 = CARTESIAN_POINT ( 'NONE',  ( 50.00000000000000700, -49.99999999999998600, 1.100000000000000100 ) ) ;
#199 = APPROVAL_ROLE ( '' ) ;
#200 = LOCAL_TIME ( 13, 47, 1.000000000000000000, #152 ) ;
#201 = LINE ( 'NONE', #193, #20 ) ;
#202 = ADVANCED_BREP_SHAPE_REPRESENTATION ( 'Web Model 83367_83367', ( #21, #63 ), #166 ) ;
#203 = CARTESIAN_POINT ( 'NONE',  ( -49.99999999999999300, -50.00000000000001400, 1.100000000000000100 ) ) ;
#204 = COORDINATED_UNIVERSAL_TIME_OFFSET ( 5, 0, .BEHIND. ) ;
#205 = PLANE ( 'NONE',  #187 ) ;
#206 = APPROVAL_DATE_TIME ( #101, #114 ) ;
#207 = CARTESIAN_POINT ( 'NONE',  ( 0.0000000000000000000, 0.0000000000000000000, 0.0000000000000000000 ) ) ;
#208 = ADVANCED_FACE ( 'NONE', ( #220 ), #185, .T. ) ;
#209 = DIRECTION ( 'NONE',  ( -0.0000000000000000000, -1.000000000000000000, -0.0000000000000000000 ) ) ;
#210 = LOCAL_TIME ( 13, 47, 1.000000000000000000, #39 ) ;
#211 = VERTEX_POINT ( 'NONE', #230 ) ;
#212 = DATE_TIME_ROLE ( 'classification_date' ) ;
#213 = APPROVAL_ROLE ( '' ) ;
#214 = PLANE ( 'NONE',  #150 ) ;
#215 = EDGE_CURVE ( 'NONE', #136, #222, #201, .T. ) ;
#216 = CARTESIAN_POINT ( 'NONE',  ( -49.99999999999999300, 49.99999999999998600, 1.100000000000000100 ) ) ;
#217 = APPROVAL ( #24, 'UNSPECIFIED' ) ;
#218 = CARTESIAN_POINT ( 'NONE',  ( 50.00000000000000700, 50.00000000000000700, 0.0000000000000000000 ) ) ;
#219 = ORIENTED_EDGE ( 'NONE', *, *, #171, .F. ) ;
#220 = FACE_OUTER_BOUND ( 'NONE', #175, .T. ) ;
#221 = CC_DESIGN_APPROVAL ( #88, ( #172 ) ) ;
#222 = VERTEX_POINT ( 'NONE', #120 ) ;
#223 = AXIS2_PLACEMENT_3D ( 'NONE', #203, #56, #55 ) ;
#224 = COORDINATED_UNIVERSAL_TIME_OFFSET ( 5, 0, .BEHIND. ) ;
#225 = EDGE_LOOP ( 'NONE', ( #158, #109, #236, #96 ) ) ;
#226 = PERSON_AND_ORGANIZATION_ROLE ( 'design_supplier' ) ;
#227 = VECTOR ( 'NONE', #23, 1000.000000000000000 ) ;
#228 = PERSON_AND_ORGANIZATION ( #130, #173 ) ;
#229 = EDGE_CURVE ( 'NONE', #26, #136, #161, .T. ) ;
#230 = CARTESIAN_POINT ( 'NONE',  ( -49.99999999999999300, -50.00000000000001400, 1.100000000000000100 ) ) ;
#231 = CARTESIAN_POINT ( 'NONE',  ( -49.99999999999999300, 49.99999999999998600, 1.100000000000000100 ) ) ;
#232 = CC_DESIGN_SECURITY_CLASSIFICATION ( #138, ( #172 ) ) ;
#233 = CARTESIAN_POINT ( 'NONE',  ( 50.00000000000000700, -49.99999999999998600, 0.0000000000000000000 ) ) ;
#234 = EDGE_LOOP ( 'NONE', ( #219, #72, #157, #54 ) ) ;
#235 = CARTESIAN_POINT ( 'NONE',  ( 50.00000000000000700, -49.99999999999998600, 1.100000000000000100 ) ) ;
#236 = ORIENTED_EDGE ( 'NONE', *, *, #29, .F. ) ;
#237 = PERSON_AND_ORGANIZATION ( #130, #173 ) ;
ENDSEC;
END-ISO-10303-21;
