ISO-10303-21;
HEADER;
FILE_DESCRIPTION (( 'STEP AP203' ),
    '1' );
FILE_NAME ('Web Model 13796_13796.step',
    '2019-12-10T20:38:00',
    ( '' ),
    ( '' ),
    'SwSTEP 2.0',
    'SolidWorks 2018',
    '' );
FILE_SCHEMA (( 'CONFIG_CONTROL_DESIGN' ));
ENDSEC;

DATA;
#1 = PERSON_AND_ORGANIZATION ( #16, #54 ) ;
#2 = APPLICATION_PROTOCOL_DEFINITION ( 'international standard', 'config_control_design', 1994, #49 ) ;
#3 = PERSON_AND_ORGANIZATION_ROLE ( 'design_owner' ) ;
#4 = ADVANCED_FACE ( 'NONE', ( #105 ), #170, .T. ) ;
#5 = PERSON_AND_ORGANIZATION ( #16, #54 ) ;
#6 = AXIS2_PLACEMENT_3D ( 'NONE', #118, #46, #149 ) ;
#7 = LINE ( 'NONE', #116, #127 ) ;
#8 = EDGE_CURVE ( 'NONE', #50, #91, #31, .T. ) ;
#9 = COORDINATED_UNIVERSAL_TIME_OFFSET ( 5, 0, .BEHIND. ) ;
#10 = FACE_OUTER_BOUND ( 'NONE', #124, .T. ) ;
#11 = DIRECTION ( 'NONE',  ( -1.000000000000000000, -0.0000000000000000000, -0.0000000000000000000 ) ) ;
#12 = PRODUCT_DEFINITION_SHAPE ( 'NONE', 'NONE',  #137 ) ;
#13 = AXIS2_PLACEMENT_3D ( 'NONE', #165, #27, #90 ) ;
#14 = CARTESIAN_POINT ( 'NONE',  ( 0.0000000000000000000, 1.530808498934191521E-15, -12.50000000000000000 ) ) ;
#15 = APPROVAL_STATUS ( 'not_yet_approved' ) ;
#16 = PERSON ( 'UNSPECIFIED', 'UNSPECIFIED', 'UNSPECIFIED', ('UNSPECIFIED'), ('UNSPECIFIED'), ('UNSPECIFIED') ) ;
#17 = APPROVAL ( #168, 'UNSPECIFIED' ) ;
#18 = EDGE_CURVE ( 'NONE', #135, #91, #19, .T. ) ;
#19 = LINE ( 'NONE', #130, #158 ) ;
#20 = CARTESIAN_POINT ( 'NONE',  ( 3.000000000000000000, 0.0000000000000000000, 0.0000000000000000000 ) ) ;
#21 = CLOSED_SHELL ( 'NONE', ( #37, #4, #106, #51 ) ) ;
#22 = DIRECTION ( 'NONE',  ( 0.0000000000000000000, 0.0000000000000000000, 1.000000000000000000 ) ) ;
#23 = EDGE_CURVE ( 'NONE', #131, #50, #7, .T. ) ;
#24 = ORIENTED_EDGE ( 'NONE', *, *, #18, .F. ) ;
#25 = CARTESIAN_POINT ( 'NONE',  ( 0.0000000000000000000, 0.0000000000000000000, 12.50000000000000000 ) ) ;
#26 = APPLICATION_CONTEXT ( 'configuration controlled 3d designs of mechanical parts and assemblies' ) ;
#27 = DIRECTION ( 'NONE',  ( 1.000000000000000000, 0.0000000000000000000, 0.0000000000000000000 ) ) ;
#28 = EDGE_CURVE ( 'NONE', #91, #50, #143, .T. ) ;
#29 = CALENDAR_DATE ( 2019, 10, 12 ) ;
#30 = CALENDAR_DATE ( 2019, 10, 12 ) ;
#31 = CIRCLE ( 'NONE', #6, 12.50000000000000000 ) ;
#32 = CARTESIAN_POINT ( 'NONE',  ( 0.0000000000000000000, 0.0000000000000000000, 0.0000000000000000000 ) ) ;
#33 = APPROVAL_DATE_TIME ( #161, #133 ) ;
#34 = EDGE_CURVE ( 'NONE', #131, #135, #95, .T. ) ;
#35 = DIRECTION ( 'NONE',  ( 1.000000000000000000, 0.0000000000000000000, 0.0000000000000000000 ) ) ;
#36 = DIRECTION ( 'NONE',  ( 0.0000000000000000000, 0.0000000000000000000, -1.000000000000000000 ) ) ;
#37 = ADVANCED_FACE ( 'NONE', ( #61 ), #93, .T. ) ;
#38 = CARTESIAN_POINT ( 'NONE',  ( 3.000000000000000000, 0.0000000000000000000, 12.50000000000000000 ) ) ;
#39 = AXIS2_PLACEMENT_3D ( 'NONE', #100, #35, #36 ) ;
#40 =( LENGTH_UNIT ( ) NAMED_UNIT ( * ) SI_UNIT ( .MILLI., .METRE. ) );
#41 = DIRECTION ( 'NONE',  ( 0.0000000000000000000, 0.0000000000000000000, -1.000000000000000000 ) ) ;
#42 = CALENDAR_DATE ( 2019, 10, 12 ) ;
#43 = PERSON_AND_ORGANIZATION_ROLE ( 'classification_officer' ) ;
#44 = APPROVAL_ROLE ( '' ) ;
#45 = AXIS2_PLACEMENT_3D ( 'NONE', #145, #47, #62 ) ;
#46 = DIRECTION ( 'NONE',  ( 1.000000000000000000, 0.0000000000000000000, 0.0000000000000000000 ) ) ;
#47 = DIRECTION ( 'NONE',  ( 1.000000000000000000, 0.0000000000000000000, 0.0000000000000000000 ) ) ;
#48 = APPROVAL_DATE_TIME ( #69, #114 ) ;
#49 = APPLICATION_CONTEXT ( 'configuration controlled 3d designs of mechanical parts and assemblies' ) ;
#50 = VERTEX_POINT ( 'NONE', #14 ) ;
#51 = ADVANCED_FACE ( 'NONE', ( #67 ), #136, .F. ) ;
#52 = DIRECTION ( 'NONE',  ( 0.0000000000000000000, 0.0000000000000000000, 1.000000000000000000 ) ) ;
#53 = DATE_AND_TIME ( #85, #59 ) ;
#54 = ORGANIZATION ( 'UNSPECIFIED', 'UNSPECIFIED', '' ) ;
#55 = ORIENTED_EDGE ( 'NONE', *, *, #28, .F. ) ;
#56 = CC_DESIGN_PERSON_AND_ORGANIZATION_ASSIGNMENT ( #5, #68, ( #137 ) ) ;
#57 = SECURITY_CLASSIFICATION_LEVEL ( 'unclassified' ) ;
#58 = AXIS2_PLACEMENT_3D ( 'NONE', #32, #162, #159 ) ;
#59 = LOCAL_TIME ( 15, 38, 0.0000000000000000000, #9 ) ;
#60 = DESIGN_CONTEXT ( 'detailed design', #26, 'design' ) ;
#61 = FACE_OUTER_BOUND ( 'NONE', #153, .T. ) ;
#62 = DIRECTION ( 'NONE',  ( 0.0000000000000000000, 0.0000000000000000000, -1.000000000000000000 ) ) ;
#63 = LOCAL_TIME ( 15, 38, 0.0000000000000000000, #117 ) ;
#64 = ORIENTED_EDGE ( 'NONE', *, *, #23, .T. ) ;
#65 = ORIENTED_EDGE ( 'NONE', *, *, #34, .F. ) ;
#66 = CC_DESIGN_APPROVAL ( #133, ( #137 ) ) ;
#67 = FACE_OUTER_BOUND ( 'NONE', #129, .T. ) ;
#68 = PERSON_AND_ORGANIZATION_ROLE ( 'creator' ) ;
#69 = DATE_AND_TIME ( #128, #63 ) ;
#70 = DATE_TIME_ROLE ( 'classification_date' ) ;
#71 = EDGE_CURVE ( 'NONE', #135, #131, #98, .T. ) ;
#72 = DIRECTION ( 'NONE',  ( 0.0000000000000000000, 0.0000000000000000000, 1.000000000000000000 ) ) ;
#73 = CC_DESIGN_PERSON_AND_ORGANIZATION_ASSIGNMENT ( #115, #155, ( #148 ) ) ;
#74 = LOCAL_TIME ( 15, 38, 0.0000000000000000000, #109 ) ;
#75 = ORIENTED_EDGE ( 'NONE', *, *, #34, .T. ) ;
#76 = ORIENTED_EDGE ( 'NONE', *, *, #71, .F. ) ;
#77 = APPLICATION_PROTOCOL_DEFINITION ( 'international standard', 'config_control_design', 1994, #26 ) ;
#78 = CC_DESIGN_SECURITY_CLASSIFICATION ( #160, ( #148 ) ) ;
#79 =( NAMED_UNIT ( * ) PLANE_ANGLE_UNIT ( ) SI_UNIT ( $, .RADIAN. ) );
#80 =( GEOMETRIC_REPRESENTATION_CONTEXT ( 3 ) GLOBAL_UNCERTAINTY_ASSIGNED_CONTEXT ( ( #154 ) ) GLOBAL_UNIT_ASSIGNED_CONTEXT ( ( #40, #79, #164 ) ) REPRESENTATION_CONTEXT ( 'NONE', 'WORKASPACE' ) );
#81 = CC_DESIGN_APPROVAL ( #114, ( #148 ) ) ;
#82 = AXIS2_PLACEMENT_3D ( 'NONE', #132, #102, #72 ) ;
#83 = DIRECTION ( 'NONE',  ( -1.000000000000000000, -0.0000000000000000000, -0.0000000000000000000 ) ) ;
#84 = MANIFOLD_SOLID_BREP ( '001', #21 ) ;
#85 = CALENDAR_DATE ( 2019, 10, 12 ) ;
#86 = SHAPE_DEFINITION_REPRESENTATION ( #12, #119 ) ;
#87 = ORIENTED_EDGE ( 'NONE', *, *, #71, .T. ) ;
#88 = ORIENTED_EDGE ( 'NONE', *, *, #23, .F. ) ;
#89 = CC_DESIGN_PERSON_AND_ORGANIZATION_ASSIGNMENT ( #104, #43, ( #160 ) ) ;
#90 = DIRECTION ( 'NONE',  ( 0.0000000000000000000, 0.0000000000000000000, -1.000000000000000000 ) ) ;
#91 = VERTEX_POINT ( 'NONE', #25 ) ;
#92 = DATE_AND_TIME ( #29, #167 ) ;
#93 = CYLINDRICAL_SURFACE ( 'NONE', #82, 12.50000000000000000 ) ;
#94 = APPROVAL_ROLE ( '' ) ;
#95 = CIRCLE ( 'NONE', #39, 12.50000000000000000 ) ;
#96 = DATE_TIME_ROLE ( 'creation_date' ) ;
#97 = COORDINATED_UNIVERSAL_TIME_OFFSET ( 5, 0, .BEHIND. ) ;
#98 = CIRCLE ( 'NONE', #13, 12.50000000000000000 ) ;
#99 = AXIS2_PLACEMENT_3D ( 'NONE', #20, #150, #22 ) ;
#100 = CARTESIAN_POINT ( 'NONE',  ( 3.000000000000000000, 0.0000000000000000000, 0.0000000000000000000 ) ) ;
#101 = ORIENTED_EDGE ( 'NONE', *, *, #28, .T. ) ;
#102 = DIRECTION ( 'NONE',  ( -1.000000000000000000, -0.0000000000000000000, -0.0000000000000000000 ) ) ;
#103 = PRODUCT ( 'Web Model 13796_13796', 'Web Model 13796_13796', '', ( #138 ) ) ;
#104 = PERSON_AND_ORGANIZATION ( #16, #54 ) ;
#105 = FACE_OUTER_BOUND ( 'NONE', #174, .T. ) ;
#106 = ADVANCED_FACE ( 'NONE', ( #10 ), #108, .T. ) ;
#107 = CARTESIAN_POINT ( 'NONE',  ( 0.0000000000000000000, 0.0000000000000000000, 0.0000000000000000000 ) ) ;
#108 = PLANE ( 'NONE',  #110 ) ;
#109 = COORDINATED_UNIVERSAL_TIME_OFFSET ( 5, 0, .BEHIND. ) ;
#110 = AXIS2_PLACEMENT_3D ( 'NONE', #122, #166, #41 ) ;
#111 = CC_DESIGN_APPROVAL ( #17, ( #160 ) ) ;
#112 = APPROVAL_ROLE ( '' ) ;
#113 = PERSON_AND_ORGANIZATION ( #16, #54 ) ;
#114 = APPROVAL ( #156, 'UNSPECIFIED' ) ;
#115 = PERSON_AND_ORGANIZATION ( #16, #54 ) ;
#116 = CARTESIAN_POINT ( 'NONE',  ( 3.000000000000000000, 1.530808498934191521E-15, -12.50000000000000000 ) ) ;
#117 = COORDINATED_UNIVERSAL_TIME_OFFSET ( 5, 0, .BEHIND. ) ;
#118 = CARTESIAN_POINT ( 'NONE',  ( 0.0000000000000000000, 0.0000000000000000000, 0.0000000000000000000 ) ) ;
#119 = ADVANCED_BREP_SHAPE_REPRESENTATION ( 'Web Model 13796_13796', ( #84, #169 ), #80 ) ;
#120 = DIRECTION ( 'NONE',  ( 1.000000000000000000, 0.0000000000000000000, 0.0000000000000000000 ) ) ;
#121 = PRODUCT_RELATED_PRODUCT_CATEGORY ( 'detail', '', ( #103 ) ) ;
#122 = CARTESIAN_POINT ( 'NONE',  ( 3.000000000000000000, 0.0000000000000000000, 0.0000000000000000000 ) ) ;
#123 = DATE_AND_TIME ( #30, #139 ) ;
#124 = EDGE_LOOP ( 'NONE', ( #87, #75 ) ) ;
#125 = PERSON_AND_ORGANIZATION_ROLE ( 'creator' ) ;
#126 = CC_DESIGN_PERSON_AND_ORGANIZATION_ASSIGNMENT ( #134, #125, ( #148 ) ) ;
#127 = VECTOR ( 'NONE', #83, 1000.000000000000000 ) ;
#128 = CALENDAR_DATE ( 2019, 10, 12 ) ;
#129 = EDGE_LOOP ( 'NONE', ( #55, #141 ) ) ;
#130 = CARTESIAN_POINT ( 'NONE',  ( 3.000000000000000000, 0.0000000000000000000, 12.50000000000000000 ) ) ;
#131 = VERTEX_POINT ( 'NONE', #140 ) ;
#132 = CARTESIAN_POINT ( 'NONE',  ( 3.000000000000000000, 0.0000000000000000000, 0.0000000000000000000 ) ) ;
#133 = APPROVAL ( #15, 'UNSPECIFIED' ) ;
#134 = PERSON_AND_ORGANIZATION ( #16, #54 ) ;
#135 = VERTEX_POINT ( 'NONE', #38 ) ;
#136 = PLANE ( 'NONE',  #58 ) ;
#137 = PRODUCT_DEFINITION ( 'UNKNOWN', '', #148, #60 ) ;
#138 = MECHANICAL_CONTEXT ( 'NONE', #49, 'mechanical' ) ;
#139 = LOCAL_TIME ( 15, 38, 0.0000000000000000000, #97 ) ;
#140 = CARTESIAN_POINT ( 'NONE',  ( 3.000000000000000000, 1.530808498934191521E-15, -12.50000000000000000 ) ) ;
#141 = ORIENTED_EDGE ( 'NONE', *, *, #8, .F. ) ;
#142 = CC_DESIGN_DATE_AND_TIME_ASSIGNMENT ( #123, #96, ( #137 ) ) ;
#143 = CIRCLE ( 'NONE', #45, 12.50000000000000000 ) ;
#144 = PERSON_AND_ORGANIZATION ( #16, #54 ) ;
#145 = CARTESIAN_POINT ( 'NONE',  ( 0.0000000000000000000, 0.0000000000000000000, 0.0000000000000000000 ) ) ;
#146 = COORDINATED_UNIVERSAL_TIME_OFFSET ( 5, 0, .BEHIND. ) ;
#147 = ORIENTED_EDGE ( 'NONE', *, *, #8, .T. ) ;
#148 = PRODUCT_DEFINITION_FORMATION_WITH_SPECIFIED_SOURCE ( 'ANY', '', #103, .NOT_KNOWN. ) ;
#149 = DIRECTION ( 'NONE',  ( 0.0000000000000000000, 0.0000000000000000000, -1.000000000000000000 ) ) ;
#150 = DIRECTION ( 'NONE',  ( -1.000000000000000000, -0.0000000000000000000, -0.0000000000000000000 ) ) ;
#151 = APPROVAL_PERSON_ORGANIZATION ( #113, #133, #94 ) ;
#152 = APPROVAL_DATE_TIME ( #53, #17 ) ;
#153 = EDGE_LOOP ( 'NONE', ( #65, #64, #147, #24 ) ) ;
#154 = UNCERTAINTY_MEASURE_WITH_UNIT (LENGTH_MEASURE( 1.000000000000000082E-05 ), #40, 'distance_accuracy_value', 'NONE');
#155 = PERSON_AND_ORGANIZATION_ROLE ( 'design_supplier' ) ;
#156 = APPROVAL_STATUS ( 'not_yet_approved' ) ;
#157 = APPROVAL_PERSON_ORGANIZATION ( #144, #114, #44 ) ;
#158 = VECTOR ( 'NONE', #11, 1000.000000000000000 ) ;
#159 = DIRECTION ( 'NONE',  ( 0.0000000000000000000, 0.0000000000000000000, -1.000000000000000000 ) ) ;
#160 = SECURITY_CLASSIFICATION ( '', '', #57 ) ;
#161 = DATE_AND_TIME ( #42, #74 ) ;
#162 = DIRECTION ( 'NONE',  ( 1.000000000000000000, 0.0000000000000000000, 0.0000000000000000000 ) ) ;
#163 = ORIENTED_EDGE ( 'NONE', *, *, #18, .T. ) ;
#164 =( NAMED_UNIT ( * ) SI_UNIT ( $, .STERADIAN. ) SOLID_ANGLE_UNIT ( ) );
#165 = CARTESIAN_POINT ( 'NONE',  ( 3.000000000000000000, 0.0000000000000000000, 0.0000000000000000000 ) ) ;
#166 = DIRECTION ( 'NONE',  ( 1.000000000000000000, 0.0000000000000000000, 0.0000000000000000000 ) ) ;
#167 = LOCAL_TIME ( 15, 38, 0.0000000000000000000, #146 ) ;
#168 = APPROVAL_STATUS ( 'not_yet_approved' ) ;
#169 = AXIS2_PLACEMENT_3D ( 'NONE', #107, #52, #120 ) ;
#170 = CYLINDRICAL_SURFACE ( 'NONE', #99, 12.50000000000000000 ) ;
#171 = PERSON_AND_ORGANIZATION ( #16, #54 ) ;
#172 = CC_DESIGN_DATE_AND_TIME_ASSIGNMENT ( #92, #70, ( #160 ) ) ;
#173 = APPROVAL_PERSON_ORGANIZATION ( #1, #17, #112 ) ;
#174 = EDGE_LOOP ( 'NONE', ( #88, #76, #163, #101 ) ) ;
#175 = CC_DESIGN_PERSON_AND_ORGANIZATION_ASSIGNMENT ( #171, #3, ( #103 ) ) ;
ENDSEC;
END-ISO-10303-21;
