ISO-10303-21;
HEADER;
FILE_DESCRIPTION (( 'STEP AP203' ),
    '1' );
FILE_NAME ('Web Model 15467_21242.step',
    '2022-03-29T20:38:41',
    ( '' ),
    ( '' ),
    'SwSTEP 2.0',
    'SolidWorks 2021',
    '' );
FILE_SCHEMA (( 'CONFIG_CONTROL_DESIGN' ));
ENDSEC;

DATA;
#1 = DATE_AND_TIME ( #13, #41 ) ;
#2 = PERSON_AND_ORGANIZATION ( #15, #25 ) ;
#3 = APPROVAL ( #113, 'UNSPECIFIED' ) ;
#4 = VECTOR ( 'NONE', #101, 1000.000000000000000 ) ;
#5 = APPROVAL ( #150, 'UNSPECIFIED' ) ;
#6 = ORIENTED_EDGE ( 'NONE', *, *, #65, .T. ) ;
#7 = APPROVAL ( #151, 'UNSPECIFIED' ) ;
#8 =( LENGTH_UNIT ( ) NAMED_UNIT ( * ) SI_UNIT ( .MILLI., .METRE. ) );
#9 = UNCERTAINTY_MEASURE_WITH_UNIT (LENGTH_MEASURE( 1.000000000000000082E-05 ), #8, 'distance_accuracy_value', 'NONE');
#10 = CARTESIAN_POINT ( 'NONE',  ( 0.000000000000000000, 0.000000000000000000, -0.7500000000000000000 ) ) ;
#11 = CARTESIAN_POINT ( 'NONE',  ( 0.000000000000000000, 0.000000000000000000, 0.7500000000000000000 ) ) ;
#12 = CC_DESIGN_APPROVAL ( #7, ( #93 ) ) ;
#13 = CALENDAR_DATE ( 2022, 29, 3 ) ;
#14 = PERSON_AND_ORGANIZATION ( #15, #25 ) ;
#15 = PERSON ( 'UNSPECIFIED', 'UNSPECIFIED', 'UNSPECIFIED', ('UNSPECIFIED'), ('UNSPECIFIED'), ('UNSPECIFIED') ) ;
#16 = COORDINATED_UNIVERSAL_TIME_OFFSET ( 5, 0, .BEHIND. ) ;
#17 = ORIENTED_EDGE ( 'NONE', *, *, #62, .F. ) ;
#18 = AXIS2_PLACEMENT_3D ( 'NONE', #143, #20, #94 ) ;
#19 = ORIENTED_EDGE ( 'NONE', *, *, #104, .F. ) ;
#20 = DIRECTION ( 'NONE',  ( 0.000000000000000000, 0.000000000000000000, 1.000000000000000000 ) ) ;
#21 = DIRECTION ( 'NONE',  ( -0.000000000000000000, -0.000000000000000000, -1.000000000000000000 ) ) ;
#22 = CC_DESIGN_PERSON_AND_ORGANIZATION_ASSIGNMENT ( #126, #136, ( #85 ) ) ;
#23 = FACE_OUTER_BOUND ( 'NONE', #117, .T. ) ;
#24 = FACE_OUTER_BOUND ( 'NONE', #55, .T. ) ;
#25 = ORGANIZATION ( 'UNSPECIFIED', 'UNSPECIFIED', '' ) ;
#26 = APPROVAL_ROLE ( '' ) ;
#27 = COORDINATED_UNIVERSAL_TIME_OFFSET ( 5, 0, .BEHIND. ) ;
#28 = SHAPE_DEFINITION_REPRESENTATION ( #87, #127 ) ;
#29 = CC_DESIGN_SECURITY_CLASSIFICATION ( #120, ( #93 ) ) ;
#30 = ORIENTED_EDGE ( 'NONE', *, *, #65, .F. ) ;
#31 = ORIENTED_EDGE ( 'NONE', *, *, #95, .F. ) ;
#32 = VERTEX_POINT ( 'NONE', #153 ) ;
#33 = LOCAL_TIME ( 16, 38, 41.00000000000000000, #16 ) ;
#34 = CC_DESIGN_PERSON_AND_ORGANIZATION_ASSIGNMENT ( #54, #99, ( #93 ) ) ;
#35 =( NAMED_UNIT ( * ) PLANE_ANGLE_UNIT ( ) SI_UNIT ( $, .RADIAN. ) );
#36 = CC_DESIGN_PERSON_AND_ORGANIZATION_ASSIGNMENT ( #78, #43, ( #102 ) ) ;
#37 = CARTESIAN_POINT ( 'NONE',  ( 0.000000000000000000, 0.000000000000000000, 0.7500000000000000000 ) ) ;
#38 = DIRECTION ( 'NONE',  ( 1.000000000000000000, 0.000000000000000000, -0.000000000000000000 ) ) ;
#39 = DATE_AND_TIME ( #148, #50 ) ;
#40 = CC_DESIGN_DATE_AND_TIME_ASSIGNMENT ( #137, #69, ( #85 ) ) ;
#41 = LOCAL_TIME ( 16, 38, 41.00000000000000000, #27 ) ;
#42 = PERSON_AND_ORGANIZATION_ROLE ( 'creator' ) ;
#43 = PERSON_AND_ORGANIZATION_ROLE ( 'design_owner' ) ;
#44 = AXIS2_PLACEMENT_3D ( 'NONE', #90, #145, #74 ) ;
#45 = COORDINATED_UNIVERSAL_TIME_OFFSET ( 5, 0, .BEHIND. ) ;
#46 = CARTESIAN_POINT ( 'NONE',  ( -5.000000000000000000, 0.000000000000000000, 0.7500000000000000000 ) ) ;
#47 = ORIENTED_EDGE ( 'NONE', *, *, #171, .T. ) ;
#48 = DIRECTION ( 'NONE',  ( 0.000000000000000000, 0.000000000000000000, 1.000000000000000000 ) ) ;
#49 = DIRECTION ( 'NONE',  ( 0.000000000000000000, 0.000000000000000000, 1.000000000000000000 ) ) ;
#50 = LOCAL_TIME ( 16, 38, 41.00000000000000000, #161 ) ;
#51 = PLANE ( 'NONE',  #44 ) ;
#52 = MECHANICAL_CONTEXT ( 'NONE', #76, 'mechanical' ) ;
#53 = COORDINATED_UNIVERSAL_TIME_OFFSET ( 5, 0, .BEHIND. ) ;
#54 = PERSON_AND_ORGANIZATION ( #15, #25 ) ;
#55 = EDGE_LOOP ( 'NONE', ( #19, #81, #155, #142 ) ) ;
#56 = CC_DESIGN_PERSON_AND_ORGANIZATION_ASSIGNMENT ( #97, #96, ( #120 ) ) ;
#57 = EDGE_LOOP ( 'NONE', ( #30, #116, #59, #17 ) ) ;
#58 = EDGE_LOOP ( 'NONE', ( #31, #83 ) ) ;
#59 = ORIENTED_EDGE ( 'NONE', *, *, #128, .T. ) ;
#60 = VECTOR ( 'NONE', #21, 1000.000000000000000 ) ;
#61 = CARTESIAN_POINT ( 'NONE',  ( 0.000000000000000000, 0.000000000000000000, -0.7500000000000000000 ) ) ;
#62 = EDGE_CURVE ( 'NONE', #129, #32, #165, .T. ) ;
#63 = DESIGN_CONTEXT ( 'detailed design', #100, 'design' ) ;
#64 = VERTEX_POINT ( 'NONE', #140 ) ;
#65 = EDGE_CURVE ( 'NONE', #166, #129, #98, .T. ) ;
#66 = DATE_AND_TIME ( #115, #141 ) ;
#67 = CALENDAR_DATE ( 2022, 29, 3 ) ;
#68 = AXIS2_PLACEMENT_3D ( 'NONE', #11, #49, #133 ) ;
#69 = DATE_TIME_ROLE ( 'creation_date' ) ;
#70 = ADVANCED_FACE ( 'NONE', ( #23 ), #159, .T. ) ;
#71 = AXIS2_PLACEMENT_3D ( 'NONE', #37, #109, #38 ) ;
#72 = CARTESIAN_POINT ( 'NONE',  ( 5.000000000000000000, 6.123233995736766282E-16, 0.7500000000000000000 ) ) ;
#73 = DIRECTION ( 'NONE',  ( 0.000000000000000000, 0.000000000000000000, 1.000000000000000000 ) ) ;
#74 = DIRECTION ( 'NONE',  ( 1.000000000000000000, 0.000000000000000000, -0.000000000000000000 ) ) ;
#75 = DIRECTION ( 'NONE',  ( -0.000000000000000000, -0.000000000000000000, -1.000000000000000000 ) ) ;
#76 = APPLICATION_CONTEXT ( 'configuration controlled 3d designs of mechanical parts and assemblies' ) ;
#77 = PERSON_AND_ORGANIZATION ( #15, #25 ) ;
#78 = PERSON_AND_ORGANIZATION ( #15, #25 ) ;
#79 = CC_DESIGN_DATE_AND_TIME_ASSIGNMENT ( #1, #110, ( #120 ) ) ;
#80 = CC_DESIGN_APPROVAL ( #5, ( #85 ) ) ;
#81 = ORIENTED_EDGE ( 'NONE', *, *, #171, .F. ) ;
#82 = AXIS2_PLACEMENT_3D ( 'NONE', #146, #174, #156 ) ;
#83 = ORIENTED_EDGE ( 'NONE', *, *, #128, .F. ) ;
#84 = CARTESIAN_POINT ( 'NONE',  ( 0.000000000000000000, 0.000000000000000000, 0.7500000000000000000 ) ) ;
#85 = PRODUCT_DEFINITION ( 'UNKNOWN', '', #93, #63 ) ;
#86 = DIRECTION ( 'NONE',  ( 0.000000000000000000, 0.000000000000000000, 1.000000000000000000 ) ) ;
#87 = PRODUCT_DEFINITION_SHAPE ( 'NONE', 'NONE',  #85 ) ;
#88 = DIRECTION ( 'NONE',  ( -1.000000000000000000, 0.000000000000000000, 0.000000000000000000 ) ) ;
#89 = APPROVAL_PERSON_ORGANIZATION ( #14, #7, #26 ) ;
#90 = CARTESIAN_POINT ( 'NONE',  ( 0.000000000000000000, 0.000000000000000000, -0.7500000000000000000 ) ) ;
#91 = CARTESIAN_POINT ( 'NONE',  ( 5.000000000000000000, 6.123233995736766282E-16, 0.7500000000000000000 ) ) ;
#92 = APPLICATION_PROTOCOL_DEFINITION ( 'international standard', 'config_control_design', 1994, #100 ) ;
#93 = PRODUCT_DEFINITION_FORMATION_WITH_SPECIFIED_SOURCE ( 'ANY', '', #102, .NOT_KNOWN. ) ;
#94 = DIRECTION ( 'NONE',  ( 1.000000000000000000, 0.000000000000000000, 0.000000000000000000 ) ) ;
#95 = EDGE_CURVE ( 'NONE', #32, #64, #130, .T. ) ;
#96 = PERSON_AND_ORGANIZATION_ROLE ( 'classification_officer' ) ;
#97 = PERSON_AND_ORGANIZATION ( #15, #25 ) ;
#98 = CIRCLE ( 'NONE', #68, 5.000000000000000000 ) ;
#99 = PERSON_AND_ORGANIZATION_ROLE ( 'design_supplier' ) ;
#100 = APPLICATION_CONTEXT ( 'configuration controlled 3d designs of mechanical parts and assemblies' ) ;
#101 = DIRECTION ( 'NONE',  ( -0.000000000000000000, -0.000000000000000000, -1.000000000000000000 ) ) ;
#102 = PRODUCT ( 'Web Model 15467_21242', 'Web Model 15467_21242', '', ( #52 ) ) ;
#103 = AXIS2_PLACEMENT_3D ( 'NONE', #84, #86, #131 ) ;
#104 = EDGE_CURVE ( 'NONE', #166, #64, #106, .T. ) ;
#105 = FACE_OUTER_BOUND ( 'NONE', #58, .T. ) ;
#106 = LINE ( 'NONE', #91, #60 ) ;
#107 = ADVANCED_FACE ( 'NONE', ( #24 ), #160, .T. ) ;
#108 = CIRCLE ( 'NONE', #103, 5.000000000000000000 ) ;
#109 = DIRECTION ( 'NONE',  ( 0.000000000000000000, 0.000000000000000000, 1.000000000000000000 ) ) ;
#110 = DATE_TIME_ROLE ( 'classification_date' ) ;
#111 = CALENDAR_DATE ( 2022, 29, 3 ) ;
#112 = CIRCLE ( 'NONE', #169, 5.000000000000000000 ) ;
#113 = APPROVAL_STATUS ( 'not_yet_approved' ) ;
#114 = SECURITY_CLASSIFICATION_LEVEL ( 'unclassified' ) ;
#115 = CALENDAR_DATE ( 2022, 29, 3 ) ;
#116 = ORIENTED_EDGE ( 'NONE', *, *, #104, .T. ) ;
#117 = EDGE_LOOP ( 'NONE', ( #47, #6 ) ) ;
#118 = LOCAL_TIME ( 16, 38, 41.00000000000000000, #45 ) ;
#119 = APPLICATION_PROTOCOL_DEFINITION ( 'international standard', 'config_control_design', 1994, #76 ) ;
#120 = SECURITY_CLASSIFICATION ( '', '', #114 ) ;
#121 =( NAMED_UNIT ( * ) SI_UNIT ( $, .STERADIAN. ) SOLID_ANGLE_UNIT ( ) );
#122 = CARTESIAN_POINT ( 'NONE',  ( -5.000000000000000000, 0.000000000000000000, 0.7500000000000000000 ) ) ;
#123 = APPROVAL_PERSON_ORGANIZATION ( #77, #3, #163 ) ;
#124 = DATE_AND_TIME ( #67, #118 ) ;
#125 = APPROVAL_DATE_TIME ( #124, #7 ) ;
#126 = PERSON_AND_ORGANIZATION ( #15, #25 ) ;
#127 = ADVANCED_BREP_SHAPE_REPRESENTATION ( 'Web Model 15467_21242', ( #168, #18 ), #167 ) ;
#128 = EDGE_CURVE ( 'NONE', #64, #32, #112, .T. ) ;
#129 = VERTEX_POINT ( 'NONE', #122 ) ;
#130 = CIRCLE ( 'NONE', #135, 5.000000000000000000 ) ;
#131 = DIRECTION ( 'NONE',  ( 1.000000000000000000, 0.000000000000000000, 0.000000000000000000 ) ) ;
#132 = APPROVAL_PERSON_ORGANIZATION ( #175, #5, #138 ) ;
#133 = DIRECTION ( 'NONE',  ( 1.000000000000000000, 0.000000000000000000, 0.000000000000000000 ) ) ;
#134 = CARTESIAN_POINT ( 'NONE',  ( 0.000000000000000000, 0.000000000000000000, 0.7500000000000000000 ) ) ;
#135 = AXIS2_PLACEMENT_3D ( 'NONE', #10, #73, #170 ) ;
#136 = PERSON_AND_ORGANIZATION_ROLE ( 'creator' ) ;
#137 = DATE_AND_TIME ( #111, #33 ) ;
#138 = APPROVAL_ROLE ( '' ) ;
#139 = CC_DESIGN_APPROVAL ( #3, ( #120 ) ) ;
#140 = CARTESIAN_POINT ( 'NONE',  ( 5.000000000000000000, 6.123233995736766282E-16, -0.7500000000000000000 ) ) ;
#141 = LOCAL_TIME ( 16, 38, 41.00000000000000000, #53 ) ;
#142 = ORIENTED_EDGE ( 'NONE', *, *, #95, .T. ) ;
#143 = CARTESIAN_POINT ( 'NONE',  ( 0.000000000000000000, 0.000000000000000000, 0.000000000000000000 ) ) ;
#144 = ADVANCED_FACE ( 'NONE', ( #172 ), #157, .T. ) ;
#145 = DIRECTION ( 'NONE',  ( 0.000000000000000000, 0.000000000000000000, 1.000000000000000000 ) ) ;
#146 = CARTESIAN_POINT ( 'NONE',  ( 0.000000000000000000, 0.000000000000000000, 0.7500000000000000000 ) ) ;
#147 = AXIS2_PLACEMENT_3D ( 'NONE', #134, #75, #88 ) ;
#148 = CALENDAR_DATE ( 2022, 29, 3 ) ;
#149 = APPROVAL_DATE_TIME ( #39, #5 ) ;
#150 = APPROVAL_STATUS ( 'not_yet_approved' ) ;
#151 = APPROVAL_STATUS ( 'not_yet_approved' ) ;
#152 = PRODUCT_RELATED_PRODUCT_CATEGORY ( 'detail', '', ( #102 ) ) ;
#153 = CARTESIAN_POINT ( 'NONE',  ( -5.000000000000000000, 0.000000000000000000, -0.7500000000000000000 ) ) ;
#154 = CC_DESIGN_PERSON_AND_ORGANIZATION_ASSIGNMENT ( #2, #42, ( #93 ) ) ;
#155 = ORIENTED_EDGE ( 'NONE', *, *, #62, .T. ) ;
#156 = DIRECTION ( 'NONE',  ( -1.000000000000000000, 0.000000000000000000, 0.000000000000000000 ) ) ;
#157 = CYLINDRICAL_SURFACE ( 'NONE', #147, 5.000000000000000000 ) ;
#158 = DIRECTION ( 'NONE',  ( 1.000000000000000000, 0.000000000000000000, 0.000000000000000000 ) ) ;
#159 = PLANE ( 'NONE',  #71 ) ;
#160 = CYLINDRICAL_SURFACE ( 'NONE', #82, 5.000000000000000000 ) ;
#161 = COORDINATED_UNIVERSAL_TIME_OFFSET ( 5, 0, .BEHIND. ) ;
#162 = ADVANCED_FACE ( 'NONE', ( #105 ), #51, .F. ) ;
#163 = APPROVAL_ROLE ( '' ) ;
#164 = APPROVAL_DATE_TIME ( #66, #3 ) ;
#165 = LINE ( 'NONE', #46, #4 ) ;
#166 = VERTEX_POINT ( 'NONE', #72 ) ;
#167 =( GEOMETRIC_REPRESENTATION_CONTEXT ( 3 ) GLOBAL_UNCERTAINTY_ASSIGNED_CONTEXT ( ( #9 ) ) GLOBAL_UNIT_ASSIGNED_CONTEXT ( ( #8, #35, #121 ) ) REPRESENTATION_CONTEXT ( 'NONE', 'WORKASPACE' ) );
#168 = MANIFOLD_SOLID_BREP ( 'Boss-Extrude1', #173 ) ;
#169 = AXIS2_PLACEMENT_3D ( 'NONE', #61, #48, #158 ) ;
#170 = DIRECTION ( 'NONE',  ( 1.000000000000000000, 0.000000000000000000, 0.000000000000000000 ) ) ;
#171 = EDGE_CURVE ( 'NONE', #129, #166, #108, .T. ) ;
#172 = FACE_OUTER_BOUND ( 'NONE', #57, .T. ) ;
#173 = CLOSED_SHELL ( 'NONE', ( #144, #107, #70, #162 ) ) ;
#174 = DIRECTION ( 'NONE',  ( -0.000000000000000000, -0.000000000000000000, -1.000000000000000000 ) ) ;
#175 = PERSON_AND_ORGANIZATION ( #15, #25 ) ;
ENDSEC;
END-ISO-10303-21;
