ISO-10303-21;
HEADER;
FILE_DESCRIPTION (( 'STEP AP203' ),
    '1' );
FILE_NAME ('Web Model 68501.STEP',
    '2017-02-01T13:22:53',
    ( '' ),
    ( '' ),
    'SwSTEP 2.0',
    'SolidWorks 2016',
    '' );
FILE_SCHEMA (( 'CONFIG_CONTROL_DESIGN' ));
ENDSEC;

DATA;
#1 = ORIENTED_EDGE ( 'NONE', *, *, #9, .T. ) ;
#2 = APPROVAL_PERSON_ORGANIZATION ( #31, #118, #110 ) ;
#3 = APPROVAL ( #130, 'UNSPECIFIED' ) ;
#4 = AXIS2_PLACEMENT_3D ( 'NONE', #159, #137, #84 ) ;
#5 = VERTEX_POINT ( 'NONE', #119 ) ;
#6 = CC_DESIGN_PERSON_AND_ORGANIZATION_ASSIGNMENT ( #170, #91, ( #167 ) ) ;
#7 = APPROVAL_DATE_TIME ( #174, #3 ) ;
#8 = CARTESIAN_POINT ( 'NONE',  ( 0.0000000000000000000, 0.0000000000000000000, 0.0000000000000000000 ) ) ;
#9 = EDGE_CURVE ( 'NONE', #87, #47, #51, .T. ) ;
#10 = ORIENTED_EDGE ( 'NONE', *, *, #18, .T. ) ;
#11 = PERSON_AND_ORGANIZATION ( #123, #142 ) ;
#12 =( NAMED_UNIT ( * ) SI_UNIT ( $, .STERADIAN. ) SOLID_ANGLE_UNIT ( ) );
#13 = CC_DESIGN_APPROVAL ( #3, ( #167 ) ) ;
#14 = PRODUCT_DEFINITION_SHAPE ( 'NONE', 'NONE',  #104 ) ;
#15 = EDGE_LOOP ( 'NONE', ( #155, #115, #77, #10 ) ) ;
#16 = AXIS2_PLACEMENT_3D ( 'NONE', #8, #129, #93 ) ;
#17 = CC_DESIGN_DATE_AND_TIME_ASSIGNMENT ( #67, #94, ( #117 ) ) ;
#18 = EDGE_CURVE ( 'NONE', #81, #5, #100, .T. ) ;
#19 = EDGE_LOOP ( 'NONE', ( #138, #1 ) ) ;
#20 = CC_DESIGN_PERSON_AND_ORGANIZATION_ASSIGNMENT ( #32, #79, ( #167 ) ) ;
#21 = DATE_AND_TIME ( #114, #38 ) ;
#22 = DIRECTION ( 'NONE',  ( 1.000000000000000000, 0.0000000000000000000, -0.0000000000000000000 ) ) ;
#23 = VECTOR ( 'NONE', #68, 1000.000000000000000 ) ;
#24 = CALENDAR_DATE ( 2017, 1, 2 ) ;
#25 = APPROVAL_STATUS ( 'not_yet_approved' ) ;
#26 = CARTESIAN_POINT ( 'NONE',  ( -12.50000000000000000, 0.0000000000000000000, 3.000000000000000000 ) ) ;
#27 = CLOSED_SHELL ( 'NONE', ( #42, #172, #120, #157 ) ) ;
#28 = DIRECTION ( 'NONE',  ( -0.0000000000000000000, -0.0000000000000000000, -1.000000000000000000 ) ) ;
#29 = APPROVAL_DATE_TIME ( #105, #118 ) ;
#30 = DIRECTION ( 'NONE',  ( 0.0000000000000000000, 0.0000000000000000000, 1.000000000000000000 ) ) ;
#31 = PERSON_AND_ORGANIZATION ( #123, #142 ) ;
#32 = PERSON_AND_ORGANIZATION ( #123, #142 ) ;
#33 = AXIS2_PLACEMENT_3D ( 'NONE', #132, #146, #22 ) ;
#34 = CC_DESIGN_PERSON_AND_ORGANIZATION_ASSIGNMENT ( #163, #59, ( #117 ) ) ;
#35 = APPROVAL_ROLE ( '' ) ;
#36 = DIRECTION ( 'NONE',  ( -1.000000000000000000, 0.0000000000000000000, 0.0000000000000000000 ) ) ;
#37 = AXIS2_PLACEMENT_3D ( 'NONE', #148, #113, #135 ) ;
#38 = LOCAL_TIME ( 8, 22, 53.00000000000000000, #74 ) ;
#39 = EDGE_CURVE ( 'NONE', #87, #5, #63, .T. ) ;
#40 = ORIENTED_EDGE ( 'NONE', *, *, #39, .T. ) ;
#41 = LOCAL_TIME ( 8, 22, 53.00000000000000000, #78 ) ;
#42 = ADVANCED_FACE ( 'NONE', ( #89 ), #60, .T. ) ;
#43 = CARTESIAN_POINT ( 'NONE',  ( -12.50000000000000000, 0.0000000000000000000, 3.000000000000000000 ) ) ;
#44 = SECURITY_CLASSIFICATION_LEVEL ( 'unclassified' ) ;
#45 = CARTESIAN_POINT ( 'NONE',  ( 12.50000000000000000, 1.530808498934191500E-015, 3.000000000000000000 ) ) ;
#46 = EDGE_CURVE ( 'NONE', #47, #81, #165, .T. ) ;
#47 = VERTEX_POINT ( 'NONE', #26 ) ;
#48 = SHAPE_DEFINITION_REPRESENTATION ( #14, #126 ) ;
#49 = PERSON_AND_ORGANIZATION_ROLE ( 'creator' ) ;
#50 =( LENGTH_UNIT ( ) NAMED_UNIT ( * ) SI_UNIT ( .MILLI., .METRE. ) );
#51 = CIRCLE ( 'NONE', #162, 12.50000000000000000 ) ;
#52 = CC_DESIGN_SECURITY_CLASSIFICATION ( #117, ( #167 ) ) ;
#53 = COORDINATED_UNIVERSAL_TIME_OFFSET ( 5, 0, .BEHIND. ) ;
#54 = APPLICATION_PROTOCOL_DEFINITION ( 'international standard', 'config_control_design', 1994, #134 ) ;
#55 = DIRECTION ( 'NONE',  ( 1.000000000000000000, 0.0000000000000000000, 0.0000000000000000000 ) ) ;
#56 = CARTESIAN_POINT ( 'NONE',  ( 0.0000000000000000000, 0.0000000000000000000, 3.000000000000000000 ) ) ;
#57 = DIRECTION ( 'NONE',  ( 1.000000000000000000, 0.0000000000000000000, 0.0000000000000000000 ) ) ;
#58 = CC_DESIGN_PERSON_AND_ORGANIZATION_ASSIGNMENT ( #11, #101, ( #102 ) ) ;
#59 = PERSON_AND_ORGANIZATION_ROLE ( 'classification_officer' ) ;
#60 = CYLINDRICAL_SURFACE ( 'NONE', #4, 12.50000000000000000 ) ;
#61 = VECTOR ( 'NONE', #28, 1000.000000000000000 ) ;
#62 = ORIENTED_EDGE ( 'NONE', *, *, #18, .F. ) ;
#63 = LINE ( 'NONE', #121, #23 ) ;
#64 = DIRECTION ( 'NONE',  ( -0.0000000000000000000, -0.0000000000000000000, -1.000000000000000000 ) ) ;
#65 = AXIS2_PLACEMENT_3D ( 'NONE', #156, #82, #111 ) ;
#66 = COORDINATED_UNIVERSAL_TIME_OFFSET ( 5, 0, .BEHIND. ) ;
#67 = DATE_AND_TIME ( #107, #41 ) ;
#68 = DIRECTION ( 'NONE',  ( -0.0000000000000000000, -0.0000000000000000000, -1.000000000000000000 ) ) ;
#69 = APPROVAL ( #164, 'UNSPECIFIED' ) ;
#70 = PLANE ( 'NONE',  #65 ) ;
#71 = CALENDAR_DATE ( 2017, 1, 2 ) ;
#72 = APPLICATION_PROTOCOL_DEFINITION ( 'international standard', 'config_control_design', 1994, #150 ) ;
#73 = FACE_OUTER_BOUND ( 'NONE', #19, .T. ) ;
#74 = COORDINATED_UNIVERSAL_TIME_OFFSET ( 5, 0, .BEHIND. ) ;
#75 = AXIS2_PLACEMENT_3D ( 'NONE', #145, #64, #36 ) ;
#76 = EDGE_CURVE ( 'NONE', #47, #87, #109, .T. ) ;
#77 = ORIENTED_EDGE ( 'NONE', *, *, #46, .T. ) ;
#78 = COORDINATED_UNIVERSAL_TIME_OFFSET ( 5, 0, .BEHIND. ) ;
#79 = PERSON_AND_ORGANIZATION_ROLE ( 'creator' ) ;
#80 = CC_DESIGN_APPROVAL ( #69, ( #104 ) ) ;
#81 = VERTEX_POINT ( 'NONE', #173 ) ;
#82 = DIRECTION ( 'NONE',  ( 0.0000000000000000000, 0.0000000000000000000, 1.000000000000000000 ) ) ;
#83 = COORDINATED_UNIVERSAL_TIME_OFFSET ( 5, 0, .BEHIND. ) ;
#84 = DIRECTION ( 'NONE',  ( -1.000000000000000000, 0.0000000000000000000, 0.0000000000000000000 ) ) ;
#85 = CARTESIAN_POINT ( 'NONE',  ( 0.0000000000000000000, 0.0000000000000000000, 3.000000000000000000 ) ) ;
#86 = AXIS2_PLACEMENT_3D ( 'NONE', #85, #99, #57 ) ;
#87 = VERTEX_POINT ( 'NONE', #45 ) ;
#88 = FACE_OUTER_BOUND ( 'NONE', #15, .T. ) ;
#89 = FACE_OUTER_BOUND ( 'NONE', #149, .T. ) ;
#90 = PERSON_AND_ORGANIZATION ( #123, #142 ) ;
#91 = PERSON_AND_ORGANIZATION_ROLE ( 'design_supplier' ) ;
#92 = PLANE ( 'NONE',  #33 ) ;
#93 = DIRECTION ( 'NONE',  ( 1.000000000000000000, 0.0000000000000000000, 0.0000000000000000000 ) ) ;
#94 = DATE_TIME_ROLE ( 'classification_date' ) ;
#95 =( GEOMETRIC_REPRESENTATION_CONTEXT ( 3 ) GLOBAL_UNCERTAINTY_ASSIGNED_CONTEXT ( ( #169 ) ) GLOBAL_UNIT_ASSIGNED_CONTEXT ( ( #50, #97, #12 ) ) REPRESENTATION_CONTEXT ( 'NONE', 'WORKASPACE' ) );
#96 = PERSON_AND_ORGANIZATION ( #123, #142 ) ;
#97 =( NAMED_UNIT ( * ) PLANE_ANGLE_UNIT ( ) SI_UNIT ( $, .RADIAN. ) );
#98 = APPROVAL_PERSON_ORGANIZATION ( #90, #69, #35 ) ;
#99 = DIRECTION ( 'NONE',  ( 0.0000000000000000000, 0.0000000000000000000, 1.000000000000000000 ) ) ;
#100 = CIRCLE ( 'NONE', #37, 12.50000000000000000 ) ;
#101 = PERSON_AND_ORGANIZATION_ROLE ( 'design_owner' ) ;
#102 = PRODUCT ( 'Web Model 68501', 'Web Model 68501', '', ( #124 ) ) ;
#103 = CARTESIAN_POINT ( 'NONE',  ( 0.0000000000000000000, 0.0000000000000000000, 0.0000000000000000000 ) ) ;
#104 = PRODUCT_DEFINITION ( 'UNKNOWN', '', #167, #108 ) ;
#105 = DATE_AND_TIME ( #143, #166 ) ;
#106 = ORIENTED_EDGE ( 'NONE', *, *, #154, .F. ) ;
#107 = CALENDAR_DATE ( 2017, 1, 2 ) ;
#108 = DESIGN_CONTEXT ( 'detailed design', #150, 'design' ) ;
#109 = CIRCLE ( 'NONE', #86, 12.50000000000000000 ) ;
#110 = APPROVAL_ROLE ( '' ) ;
#111 = DIRECTION ( 'NONE',  ( 1.000000000000000000, 0.0000000000000000000, -0.0000000000000000000 ) ) ;
#112 = PERSON_AND_ORGANIZATION ( #123, #142 ) ;
#113 = DIRECTION ( 'NONE',  ( 0.0000000000000000000, 0.0000000000000000000, 1.000000000000000000 ) ) ;
#114 = CALENDAR_DATE ( 2017, 1, 2 ) ;
#115 = ORIENTED_EDGE ( 'NONE', *, *, #76, .F. ) ;
#116 = LOCAL_TIME ( 8, 22, 53.00000000000000000, #53 ) ;
#117 = SECURITY_CLASSIFICATION ( '', '', #44 ) ;
#118 = APPROVAL ( #25, 'UNSPECIFIED' ) ;
#119 = CARTESIAN_POINT ( 'NONE',  ( 12.50000000000000000, 1.530808498934191500E-015, 0.0000000000000000000 ) ) ;
#120 = ADVANCED_FACE ( 'NONE', ( #73 ), #70, .T. ) ;
#121 = CARTESIAN_POINT ( 'NONE',  ( 12.50000000000000000, 1.530808498934191500E-015, 3.000000000000000000 ) ) ;
#122 = ORIENTED_EDGE ( 'NONE', *, *, #154, .T. ) ;
#123 = PERSON ( 'UNSPECIFIED', 'UNSPECIFIED', 'UNSPECIFIED', ('UNSPECIFIED'), ('UNSPECIFIED'), ('UNSPECIFIED') ) ;
#124 = MECHANICAL_CONTEXT ( 'NONE', #134, 'mechanical' ) ;
#125 = EDGE_LOOP ( 'NONE', ( #62, #106 ) ) ;
#126 = ADVANCED_BREP_SHAPE_REPRESENTATION ( 'Web Model 68501', ( #175, #147 ), #95 ) ;
#127 = PRODUCT_RELATED_PRODUCT_CATEGORY ( 'detail', '', ( #102 ) ) ;
#128 = CIRCLE ( 'NONE', #16, 12.50000000000000000 ) ;
#129 = DIRECTION ( 'NONE',  ( 0.0000000000000000000, 0.0000000000000000000, 1.000000000000000000 ) ) ;
#130 = APPROVAL_STATUS ( 'not_yet_approved' ) ;
#131 = FACE_OUTER_BOUND ( 'NONE', #125, .T. ) ;
#132 = CARTESIAN_POINT ( 'NONE',  ( 0.0000000000000000000, 0.0000000000000000000, 0.0000000000000000000 ) ) ;
#133 = CYLINDRICAL_SURFACE ( 'NONE', #75, 12.50000000000000000 ) ;
#134 = APPLICATION_CONTEXT ( 'configuration controlled 3d designs of mechanical parts and assemblies' ) ;
#135 = DIRECTION ( 'NONE',  ( 1.000000000000000000, 0.0000000000000000000, 0.0000000000000000000 ) ) ;
#136 = DATE_AND_TIME ( #71, #151 ) ;
#137 = DIRECTION ( 'NONE',  ( -0.0000000000000000000, -0.0000000000000000000, -1.000000000000000000 ) ) ;
#138 = ORIENTED_EDGE ( 'NONE', *, *, #76, .T. ) ;
#139 = APPROVAL_DATE_TIME ( #136, #69 ) ;
#140 = CC_DESIGN_APPROVAL ( #118, ( #117 ) ) ;
#141 = DIRECTION ( 'NONE',  ( 1.000000000000000000, 0.0000000000000000000, 0.0000000000000000000 ) ) ;
#142 = ORGANIZATION ( 'UNSPECIFIED', 'UNSPECIFIED', '' ) ;
#143 = CALENDAR_DATE ( 2017, 1, 2 ) ;
#144 = APPROVAL_ROLE ( '' ) ;
#145 = CARTESIAN_POINT ( 'NONE',  ( 0.0000000000000000000, 0.0000000000000000000, 3.000000000000000000 ) ) ;
#146 = DIRECTION ( 'NONE',  ( 0.0000000000000000000, 0.0000000000000000000, 1.000000000000000000 ) ) ;
#147 = AXIS2_PLACEMENT_3D ( 'NONE', #103, #30, #141 ) ;
#148 = CARTESIAN_POINT ( 'NONE',  ( 0.0000000000000000000, 0.0000000000000000000, 0.0000000000000000000 ) ) ;
#149 = EDGE_LOOP ( 'NONE', ( #160, #40, #122, #168 ) ) ;
#150 = APPLICATION_CONTEXT ( 'configuration controlled 3d designs of mechanical parts and assemblies' ) ;
#151 = LOCAL_TIME ( 8, 22, 53.00000000000000000, #83 ) ;
#152 = CC_DESIGN_PERSON_AND_ORGANIZATION_ASSIGNMENT ( #112, #49, ( #104 ) ) ;
#153 = DATE_TIME_ROLE ( 'creation_date' ) ;
#154 = EDGE_CURVE ( 'NONE', #5, #81, #128, .T. ) ;
#155 = ORIENTED_EDGE ( 'NONE', *, *, #39, .F. ) ;
#156 = CARTESIAN_POINT ( 'NONE',  ( 0.0000000000000000000, 0.0000000000000000000, 3.000000000000000000 ) ) ;
#157 = ADVANCED_FACE ( 'NONE', ( #131 ), #92, .F. ) ;
#158 = CC_DESIGN_DATE_AND_TIME_ASSIGNMENT ( #21, #153, ( #104 ) ) ;
#159 = CARTESIAN_POINT ( 'NONE',  ( 0.0000000000000000000, 0.0000000000000000000, 3.000000000000000000 ) ) ;
#160 = ORIENTED_EDGE ( 'NONE', *, *, #9, .F. ) ;
#161 = DIRECTION ( 'NONE',  ( 0.0000000000000000000, 0.0000000000000000000, 1.000000000000000000 ) ) ;
#162 = AXIS2_PLACEMENT_3D ( 'NONE', #56, #161, #55 ) ;
#163 = PERSON_AND_ORGANIZATION ( #123, #142 ) ;
#164 = APPROVAL_STATUS ( 'not_yet_approved' ) ;
#165 = LINE ( 'NONE', #43, #61 ) ;
#166 = LOCAL_TIME ( 8, 22, 53.00000000000000000, #66 ) ;
#167 = PRODUCT_DEFINITION_FORMATION_WITH_SPECIFIED_SOURCE ( 'ANY', '', #102, .NOT_KNOWN. ) ;
#168 = ORIENTED_EDGE ( 'NONE', *, *, #46, .F. ) ;
#169 = UNCERTAINTY_MEASURE_WITH_UNIT (LENGTH_MEASURE( 1.000000000000000100E-005 ), #50, 'distance_accuracy_value', 'NONE');
#170 = PERSON_AND_ORGANIZATION ( #123, #142 ) ;
#171 = APPROVAL_PERSON_ORGANIZATION ( #96, #3, #144 ) ;
#172 = ADVANCED_FACE ( 'NONE', ( #88 ), #133, .T. ) ;
#173 = CARTESIAN_POINT ( 'NONE',  ( -12.50000000000000000, 0.0000000000000000000, 0.0000000000000000000 ) ) ;
#174 = DATE_AND_TIME ( #24, #116 ) ;
#175 = MANIFOLD_SOLID_BREP ( 'Extrude1', #27 ) ;
ENDSEC;
END-ISO-10303-21;
