ISO-10303-21;
HEADER;
FILE_DESCRIPTION (( 'STEP AP203' ),
    '1' );
FILE_NAME ('21997-E0W.STEP',
    '2018-06-01T18:11:47',
    ( 'admin' ),
    ( '' ),
    'SwSTEP 2.0',
    'SolidWorks 2016',
    '' );
FILE_SCHEMA (( 'CONFIG_CONTROL_DESIGN' ));
ENDSEC;

DATA;
#1 = ORIENTED_EDGE ( 'NONE', *, *, #302, .F. ) ;
#2 = ADVANCED_FACE ( 'NONE', ( #66 ), #174, .T. ) ;
#3 = ORIENTED_EDGE ( 'NONE', *, *, #98, .T. ) ;
#4 = APPLICATION_CONTEXT ( 'configuration controlled 3d designs of mechanical parts and assemblies' ) ;
#5 = AXIS2_PLACEMENT_3D ( 'NONE', #36, #60, #23 ) ;
#6 = APPROVAL_ROLE ( '' ) ;
#7 = CARTESIAN_POINT ( 'NONE',  ( 0.0000000000000000000, -1.826145291744313700E-017, -0.05296729979521176000 ) ) ;
#8 = APPROVAL_PERSON_ORGANIZATION ( #222, #297, #278 ) ;
#9 = ADVANCED_FACE ( 'NONE', ( #185 ), #189, .T. ) ;
#10 = EDGE_CURVE ( 'NONE', #54, #219, #246, .T. ) ;
#11 = VERTEX_POINT ( 'NONE', #200 ) ;
#12 = EDGE_CURVE ( 'NONE', #219, #158, #330, .T. ) ;
#13 = DIRECTION ( 'NONE',  ( 0.0000000000000000000, -1.000000000000000000, -1.878145495644181100E-016 ) ) ;
#14 = ORIENTED_EDGE ( 'NONE', *, *, #302, .T. ) ;
#15 = EDGE_LOOP ( 'NONE', ( #155, #270, #180 ) ) ;
#16 = CARTESIAN_POINT ( 'NONE',  ( 0.0000000000000000000, 0.0000000000000000000, 0.0000000000000000000 ) ) ;
#17 = VERTEX_POINT ( 'NONE', #230 ) ;
#18 = ADVANCED_FACE ( 'NONE', ( #165 ), #69, .F. ) ;
#19 = AXIS2_PLACEMENT_3D ( 'NONE', #329, #97, #76 ) ;
#20 = EDGE_CURVE ( 'NONE', #157, #314, #45, .T. ) ;
#21 = PRODUCT_RELATED_PRODUCT_CATEGORY ( 'detail', '', ( #24 ) ) ;
#22 = PERSON_AND_ORGANIZATION ( #253, #194 ) ;
#23 = DIRECTION ( 'NONE',  ( 0.0000000000000000000, -1.000000000000000000, -1.707404996040164800E-016 ) ) ;
#24 = PRODUCT ( '21997-E0W', '21997-E0W', '', ( #319 ) ) ;
#25 = EDGE_LOOP ( 'NONE', ( #186, #3, #135, #277 ) ) ;
#26 = AXIS2_PLACEMENT_3D ( 'NONE', #51, #137, #295 ) ;
#27 = ORIENTED_EDGE ( 'NONE', *, *, #145, .F. ) ;
#28 = DIRECTION ( 'NONE',  ( 0.0000000000000000000, -1.000000000000000000, -1.707404996040164800E-016 ) ) ;
#29 = CARTESIAN_POINT ( 'NONE',  ( 0.0000000000000000000, -4.207670011193372400E-017, 0.07668114938551640100 ) ) ;
#30 = PERSON_AND_ORGANIZATION_ROLE ( 'design_supplier' ) ;
#31 = ORIENTED_EDGE ( 'NONE', *, *, #268, .T. ) ;
#32 = CARTESIAN_POINT ( 'NONE',  ( 3.061616997868382400E-017, 0.2499999999999999200, 0.07668114938551644200 ) ) ;
#33 = DATE_AND_TIME ( #274, #257 ) ;
#34 = SPHERICAL_SURFACE ( 'NONE', #26, 0.6374015748031497400 ) ;
#35 = ORIENTED_EDGE ( 'NONE', *, *, #10, .T. ) ;
#36 = CARTESIAN_POINT ( 'NONE',  ( 0.0000000000000000000, -1.826145291744312200E-017, -0.05296729979521176000 ) ) ;
#37 = PERSON_AND_ORGANIZATION ( #253, #194 ) ;
#38 = APPROVAL_DATE_TIME ( #91, #297 ) ;
#39 = APPROVAL_DATE_TIME ( #181, #71 ) ;
#40 = CARTESIAN_POINT ( 'NONE',  ( 0.0000000000000000000, 0.2444322300693972100, 0.08224891931611921800 ) ) ;
#41 = VECTOR ( 'NONE', #61, 39.37007874015748100 ) ;
#42 = ORIENTED_EDGE ( 'NONE', *, *, #145, .T. ) ;
#43 = DIRECTION ( 'NONE',  ( -0.0000000000000000000, -1.836909530733567100E-016, 1.000000000000000000 ) ) ;
#44 = AXIS2_PLACEMENT_3D ( 'NONE', #29, #205, #28 ) ;
#45 = CIRCLE ( 'NONE', #147, 0.6374015748031497400 ) ;
#46 = EDGE_CURVE ( 'NONE', #164, #314, #49, .T. ) ;
#47 = CARTESIAN_POINT ( 'NONE',  ( 3.061616997868382400E-017, 0.2499999999999999200, 0.03351843473639508400 ) ) ;
#48 = DIRECTION ( 'NONE',  ( 0.0000000000000000000, 0.0000000000000000000, 1.000000000000000000 ) ) ;
#49 = CIRCLE ( 'NONE', #19, 0.2444322300693971800 ) ;
#50 = COORDINATED_UNIVERSAL_TIME_OFFSET ( 5, 0, .BEHIND. ) ;
#51 = CARTESIAN_POINT ( 'NONE',  ( 0.0000000000000000000, -3.414809992080329000E-017, 0.6709200095395447800 ) ) ;
#52 = ORIENTED_EDGE ( 'NONE', *, *, #10, .F. ) ;
#53 = PERSON_AND_ORGANIZATION ( #253, #194 ) ;
#54 = VERTEX_POINT ( 'NONE', #160 ) ;
#55 = AXIS2_PLACEMENT_3D ( 'NONE', #248, #245, #244 ) ;
#56 = APPLICATION_PROTOCOL_DEFINITION ( 'international standard', 'config_control_design', 1994, #4 ) ;
#57 = APPLICATION_CONTEXT ( 'configuration controlled 3d designs of mechanical parts and assemblies' ) ;
#58 = ORIENTED_EDGE ( 'NONE', *, *, #20, .F. ) ;
#59 = FACE_OUTER_BOUND ( 'NONE', #299, .T. ) ;
#60 = DIRECTION ( 'NONE',  ( -0.0000000000000000000, -1.836909530733567100E-016, 1.000000000000000000 ) ) ;
#61 = DIRECTION ( 'NONE',  ( -0.0000000000000000000, -1.836909530733565600E-016, 1.000000000000000000 ) ) ;
#62 = DIRECTION ( 'NONE',  ( -0.0000000000000000000, -1.836909530733565600E-016, 1.000000000000000000 ) ) ;
#63 = ADVANCED_FACE ( 'NONE', ( #162 ), #34, .F. ) ;
#64 = CARTESIAN_POINT ( 'NONE',  ( 0.0000000000000000000, -4.207670011193372400E-017, 0.07668114938551640100 ) ) ;
#65 = ADVANCED_BREP_SHAPE_REPRESENTATION ( '21997-E0W', ( #312, #176 ), #169 ) ;
#66 = FACE_OUTER_BOUND ( 'NONE', #168, .T. ) ;
#67 = VERTEX_POINT ( 'NONE', #85 ) ;
#68 = CARTESIAN_POINT ( 'NONE',  ( 3.061616997868382400E-017, 0.2499999999999999200, -0.05296729979521171800 ) ) ;
#69 = SPHERICAL_SURFACE ( 'NONE', #116, 0.6374015748031497400 ) ;
#70 = SPHERICAL_SURFACE ( 'NONE', #134, 1.327637795275590700 ) ;
#71 = APPROVAL ( #123, 'UNSPECIFIED' ) ;
#72 = DIRECTION ( 'NONE',  ( 0.0000000000000000000, 1.836909530733565600E-016, -1.000000000000000000 ) ) ;
#73 = DIRECTION ( 'NONE',  ( 7.801757686848489700E-017, 0.6370618607977724900, 0.7708126786171070100 ) ) ;
#74 = ADVANCED_FACE ( 'NONE', ( #310 ), #81, .T. ) ;
#75 = LINE ( 'NONE', #291, #86 ) ;
#76 = DIRECTION ( 'NONE',  ( 0.0000000000000000000, -1.000000000000000000, -2.095556296592407800E-016 ) ) ;
#77 = VECTOR ( 'NONE', #283, 39.37007874015748100 ) ;
#78 = ORIENTED_EDGE ( 'NONE', *, *, #320, .F. ) ;
#79 = DIRECTION ( 'NONE',  ( -1.000000000000000000, 0.0000000000000000000, 0.0000000000000000000 ) ) ;
#80 = CIRCLE ( 'NONE', #163, 0.2444322300693971800 ) ;
#81 = CONICAL_SURFACE ( 'NONE', #5, 0.2499999999999999700, 0.6906804910315419400 ) ;
#82 = CYLINDRICAL_SURFACE ( 'NONE', #121, 0.2499999999999999700 ) ;
#83 = EDGE_CURVE ( 'NONE', #314, #164, #80, .T. ) ;
#84 = CIRCLE ( 'NONE', #55, 0.2422900286534946100 ) ;
#85 = CARTESIAN_POINT ( 'NONE',  ( 2.967197080558222300E-017, 0.2422900286534944400, -0.06229597575490405900 ) ) ;
#86 = VECTOR ( 'NONE', #292, 39.37007874015748100 ) ;
#87 = FACE_OUTER_BOUND ( 'NONE', #263, .T. ) ;
#88 = DIRECTION ( 'NONE',  ( 0.0000000000000000000, 0.0000000000000000000, -1.000000000000000000 ) ) ;
#89 = VECTOR ( 'NONE', #173, 39.37007874015748100 ) ;
#90 = ORIENTED_EDGE ( 'NONE', *, *, #284, .F. ) ;
#91 = DATE_AND_TIME ( #251, #213 ) ;
#92 = CIRCLE ( 'NONE', #175, 1.327637795275590900 ) ;
#93 = CYLINDRICAL_SURFACE ( 'NONE', #238, 0.2499999999999999700 ) ;
#94 = VERTEX_POINT ( 'NONE', #32 ) ;
#95 = FACE_OUTER_BOUND ( 'NONE', #280, .T. ) ;
#96 = ADVANCED_FACE ( 'NONE', ( #59 ), #82, .T. ) ;
#97 = DIRECTION ( 'NONE',  ( -0.0000000000000000000, -1.836909530733565600E-016, 1.000000000000000000 ) ) ;
#98 = EDGE_CURVE ( 'NONE', #164, #11, #303, .T. ) ;
#99 = VECTOR ( 'NONE', #226, 39.37007874015748900 ) ;
#100 = LOCAL_TIME ( 14, 11, 47.00000000000000000, #279 ) ;
#101 = CIRCLE ( 'NONE', #269, 1.327637795275590700 ) ;
#102 = LINE ( 'NONE', #178, #89 ) ;
#103 = CARTESIAN_POINT ( 'NONE',  ( 0.0000000000000000000, -0.2500000000000000000, -0.05296729979521180200 ) ) ;
#104 = DIRECTION ( 'NONE',  ( 0.0000000000000000000, 1.000000000000000000, 2.142956733757636600E-016 ) ) ;
#105 = DIRECTION ( 'NONE',  ( 0.0000000000000000000, -1.000000000000000000, -1.761736755665221500E-016 ) ) ;
#106 = DIRECTION ( 'NONE',  ( 0.0000000000000000000, 1.836909530733567100E-016, -1.000000000000000000 ) ) ;
#107 = PERSON_AND_ORGANIZATION ( #253, #194 ) ;
#108 = DIRECTION ( 'NONE',  ( 0.0000000000000000000, 1.000000000000000000, 1.707404996040164800E-016 ) ) ;
#109 = DIRECTION ( 'NONE',  ( 0.0000000000000000000, -1.000000000000000000, -1.707404996040164800E-016 ) ) ;
#110 = ORIENTED_EDGE ( 'NONE', *, *, #281, .F. ) ;
#111 = FACE_OUTER_BOUND ( 'NONE', #199, .T. ) ;
#112 = CARTESIAN_POINT ( 'NONE',  ( 0.0000000000000000000, -1.826145291744312200E-017, -0.05296729979521176000 ) ) ;
#113 = CIRCLE ( 'NONE', #287, 0.2422900286534946100 ) ;
#114 = DIRECTION ( 'NONE',  ( -1.224646799147353200E-016, -1.000000000000000000, 0.0000000000000000000 ) ) ;
#115 = DIRECTION ( 'NONE',  ( -1.000000000000000000, 1.224646799147353200E-016, 2.249565377136127700E-032 ) ) ;
#116 = AXIS2_PLACEMENT_3D ( 'NONE', #321, #79, #104 ) ;
#117 = EDGE_CURVE ( 'NONE', #219, #11, #75, .T. ) ;
#118 = CARTESIAN_POINT ( 'NONE',  ( 0.0000000000000000000, -3.414809992080329000E-017, 0.6709200095395447800 ) ) ;
#119 = PERSON_AND_ORGANIZATION_ROLE ( 'design_owner' ) ;
#120 = EDGE_LOOP ( 'NONE', ( #90, #27, #35, #78 ) ) ;
#121 = AXIS2_PLACEMENT_3D ( 'NONE', #316, #293, #13 ) ;
#122 = CIRCLE ( 'NONE', #294, 0.6374015748031497400 ) ;
#123 = APPROVAL_STATUS ( 'not_yet_approved' ) ;
#124 = COORDINATED_UNIVERSAL_TIME_OFFSET ( 5, 0, .BEHIND. ) ;
#125 = DIRECTION ( 'NONE',  ( 0.0000000000000000000, 0.0000000000000000000, 1.000000000000000000 ) ) ;
#126 = CIRCLE ( 'NONE', #211, 0.2499999999999999700 ) ;
#127 = COORDINATED_UNIVERSAL_TIME_OFFSET ( 5, 0, .BEHIND. ) ;
#128 = DIRECTION ( 'NONE',  ( 0.0000000000000000000, -1.000000000000000000, -2.057675672827005600E-016 ) ) ;
#129 = DIRECTION ( 'NONE',  ( -1.000000000000000000, 0.0000000000000000000, -0.0000000000000000000 ) ) ;
#130 = ORIENTED_EDGE ( 'NONE', *, *, #315, .F. ) ;
#131 = LINE ( 'NONE', #68, #141 ) ;
#132 = CARTESIAN_POINT ( 'NONE',  ( 0.0000000000000000000, -3.414809992080329000E-017, 1.243045993791513300 ) ) ;
#133 = FACE_OUTER_BOUND ( 'NONE', #298, .T. ) ;
#134 = AXIS2_PLACEMENT_3D ( 'NONE', #234, #265, #128 ) ;
#135 = ORIENTED_EDGE ( 'NONE', *, *, #281, .T. ) ;
#136 = DIRECTION ( 'NONE',  ( 1.000000000000000000, 0.0000000000000000000, 0.0000000000000000000 ) ) ;
#137 = DIRECTION ( 'NONE',  ( -1.000000000000000000, 0.0000000000000000000, 0.0000000000000000000 ) ) ;
#138 = LINE ( 'NONE', #47, #41 ) ;
#139 = DIRECTION ( 'NONE',  ( 1.000000000000000000, 0.0000000000000000000, 0.0000000000000000000 ) ) ;
#140 = DATE_AND_TIME ( #318, #100 ) ;
#141 = VECTOR ( 'NONE', #73, 39.37007874015748100 ) ;
#142 = CONICAL_SURFACE ( 'NONE', #191, 0.2499999999999999700, 0.7853981633974513900 ) ;
#143 = CARTESIAN_POINT ( 'NONE',  ( 0.0000000000000000000, -1.826145291744313700E-017, -0.05296729979521176000 ) ) ;
#144 = CARTESIAN_POINT ( 'NONE',  ( 0.0000000000000000000, -3.414809992080329000E-017, 0.6709200095395447800 ) ) ;
#145 = EDGE_CURVE ( 'NONE', #54, #67, #84, .T. ) ;
#146 = DIRECTION ( 'NONE',  ( 1.224646799147353200E-016, 1.000000000000000000, 0.0000000000000000000 ) ) ;
#147 = AXIS2_PLACEMENT_3D ( 'NONE', #144, #139, #88 ) ;
#148 = CARTESIAN_POINT ( 'NONE',  ( 0.0000000000000000000, -4.207670011193372400E-017, 0.07668114938551640100 ) ) ;
#149 = PRODUCT_DEFINITION_FORMATION_WITH_SPECIFIED_SOURCE ( 'ANY', '', #24, .NOT_KNOWN. ) ;
#150 = DATE_TIME_ROLE ( 'classification_date' ) ;
#151 = CIRCLE ( 'NONE', #236, 0.2499999999999999700 ) ;
#152 = ORIENTED_EDGE ( 'NONE', *, *, #255, .T. ) ;
#153 = APPROVAL_STATUS ( 'not_yet_approved' ) ;
#154 = DATE_TIME_ROLE ( 'creation_date' ) ;
#155 = ORIENTED_EDGE ( 'NONE', *, *, #262, .F. ) ;
#156 = ORIENTED_EDGE ( 'NONE', *, *, #249, .T. ) ;
#157 = VERTEX_POINT ( 'NONE', #256 ) ;
#158 = VERTEX_POINT ( 'NONE', #261 ) ;
#159 = DIRECTION ( 'NONE',  ( 1.000000000000000000, -1.224646799147353200E-016, -2.249565377136127700E-032 ) ) ;
#160 = CARTESIAN_POINT ( 'NONE',  ( 0.0000000000000000000, -0.2422900286534940300, -0.06229597575490409400 ) ) ;
#161 = CARTESIAN_POINT ( 'NONE',  ( 0.0000000000000000000, -3.414809992080329000E-017, 1.243045993791513300 ) ) ;
#162 = FACE_OUTER_BOUND ( 'NONE', #15, .T. ) ;
#163 = AXIS2_PLACEMENT_3D ( 'NONE', #305, #300, #296 ) ;
#164 = VERTEX_POINT ( 'NONE', #237 ) ;
#165 = FACE_OUTER_BOUND ( 'NONE', #240, .T. ) ;
#166 = DIRECTION ( 'NONE',  ( -0.0000000000000000000, -1.836909530733567100E-016, 1.000000000000000000 ) ) ;
#167 = ORIENTED_EDGE ( 'NONE', *, *, #320, .T. ) ;
#168 = EDGE_LOOP ( 'NONE', ( #216, #156, #31 ) ) ;
#169 =( GEOMETRIC_REPRESENTATION_CONTEXT ( 3 ) GLOBAL_UNCERTAINTY_ASSIGNED_CONTEXT ( ( #301 ) ) GLOBAL_UNIT_ASSIGNED_CONTEXT ( ( #197, #196, #192 ) ) REPRESENTATION_CONTEXT ( 'NONE', 'WORKASPACE' ) );
#170 = DESIGN_CONTEXT ( 'detailed design', #4, 'design' ) ;
#171 = ORIENTED_EDGE ( 'NONE', *, *, #235, .T. ) ;
#172 = CC_DESIGN_PERSON_AND_ORGANIZATION_ASSIGNMENT ( #37, #119, ( #24 ) ) ;
#173 = DIRECTION ( 'NONE',  ( 0.0000000000000000000, 0.7071067811865497900, -0.7071067811865452400 ) ) ;
#174 = SPHERICAL_SURFACE ( 'NONE', #217, 1.327637795275590700 ) ;
#175 = AXIS2_PLACEMENT_3D ( 'NONE', #132, #129, #125 ) ;
#176 = AXIS2_PLACEMENT_3D ( 'NONE', #16, #48, #203 ) ;
#177 = COORDINATED_UNIVERSAL_TIME_OFFSET ( 5, 0, .BEHIND. ) ;
#178 = CARTESIAN_POINT ( 'NONE',  ( 0.0000000000000000000, 0.2499999999999999200, 0.07668114938551644200 ) ) ;
#179 = CALENDAR_DATE ( 2018, 1, 6 ) ;
#180 = ORIENTED_EDGE ( 'NONE', *, *, #83, .T. ) ;
#181 = DATE_AND_TIME ( #179, #183 ) ;
#182 = CC_DESIGN_PERSON_AND_ORGANIZATION_ASSIGNMENT ( #243, #232, ( #223 ) ) ;
#183 = LOCAL_TIME ( 14, 11, 47.00000000000000000, #177 ) ;
#184 = ORIENTED_EDGE ( 'NONE', *, *, #98, .F. ) ;
#185 = FACE_OUTER_BOUND ( 'NONE', #25, .T. ) ;
#186 = ORIENTED_EDGE ( 'NONE', *, *, #46, .F. ) ;
#187 = ADVANCED_FACE ( 'NONE', ( #87 ), #70, .T. ) ;
#188 = DIRECTION ( 'NONE',  ( 0.0000000000000000000, -1.000000000000000000, -1.707404996040164800E-016 ) ) ;
#189 = CONICAL_SURFACE ( 'NONE', #307, 0.2499999999999999700, 0.7853981633974513900 ) ;
#190 = ADVANCED_FACE ( 'NONE', ( #95 ), #142, .T. ) ;
#191 = AXIS2_PLACEMENT_3D ( 'NONE', #224, #272, #282 ) ;
#192 =( NAMED_UNIT ( * ) SI_UNIT ( $, .STERADIAN. ) SOLID_ANGLE_UNIT ( ) );
#193 = CC_DESIGN_APPROVAL ( #71, ( #223 ) ) ;
#194 = ORGANIZATION ( 'UNSPECIFIED', 'UNSPECIFIED', '' ) ;
#195 = ORIENTED_EDGE ( 'NONE', *, *, #117, .F. ) ;
#196 =( NAMED_UNIT ( * ) PLANE_ANGLE_UNIT ( ) SI_UNIT ( $, .RADIAN. ) );
#197 =( CONVERSION_BASED_UNIT ( 'INCH', #215 ) LENGTH_UNIT ( ) NAMED_UNIT ( #206 ) );
#198 = DATE_AND_TIME ( #324, #306 ) ;
#199 = EDGE_LOOP ( 'NONE', ( #309, #14, #110, #195 ) ) ;
#200 = CARTESIAN_POINT ( 'NONE',  ( 0.0000000000000000000, -0.2500000000000000000, 0.07668114938551635900 ) ) ;
#201 =( LENGTH_UNIT ( ) NAMED_UNIT ( * ) SI_UNIT ( $, .METRE. ) );
#202 = APPROVAL ( #153, 'UNSPECIFIED' ) ;
#203 = DIRECTION ( 'NONE',  ( 1.000000000000000000, 0.0000000000000000000, 0.0000000000000000000 ) ) ;
#204 = DIRECTION ( 'NONE',  ( 0.0000000000000000000, -1.000000000000000000, -1.707404996040164800E-016 ) ) ;
#205 = DIRECTION ( 'NONE',  ( -0.0000000000000000000, -1.836909530733565600E-016, 1.000000000000000000 ) ) ;
#206 = DIMENSIONAL_EXPONENTS ( 1.000000000000000000, 0.0000000000000000000, 0.0000000000000000000, 0.0000000000000000000, 0.0000000000000000000, 0.0000000000000000000, 0.0000000000000000000 ) ;
#207 = ORIENTED_EDGE ( 'NONE', *, *, #249, .F. ) ;
#208 = AXIS2_PLACEMENT_3D ( 'NONE', #143, #247, #188 ) ;
#209 = DIRECTION ( 'NONE',  ( 0.0000000000000000000, -1.000000000000000000, -1.707404996040164800E-016 ) ) ;
#210 = CARTESIAN_POINT ( 'NONE',  ( 0.0000000000000000000, 2.056314105518306800E-016, -0.06229597575490401100 ) ) ;
#211 = AXIS2_PLACEMENT_3D ( 'NONE', #7, #43, #204 ) ;
#212 = CC_DESIGN_APPROVAL ( #202, ( #149 ) ) ;
#213 = LOCAL_TIME ( 14, 11, 47.00000000000000000, #124 ) ;
#214 = DIRECTION ( 'NONE',  ( -0.0000000000000000000, -1.836909530733565600E-016, 1.000000000000000000 ) ) ;
#215 = LENGTH_MEASURE_WITH_UNIT ( LENGTH_MEASURE( 0.02539999999999999900 ), #201 );
#216 = ORIENTED_EDGE ( 'NONE', *, *, #255, .F. ) ;
#217 = AXIS2_PLACEMENT_3D ( 'NONE', #254, #136, #250 ) ;
#218 = APPLICATION_PROTOCOL_DEFINITION ( 'international standard', 'config_control_design', 1994, #57 ) ;
#219 = VERTEX_POINT ( 'NONE', #229 ) ;
#220 = CARTESIAN_POINT ( 'NONE',  ( 0.0000000000000000000, -3.414809992080329000E-017, 0.03351843473639503500 ) ) ;
#221 = DIRECTION ( 'NONE',  ( 0.0000000000000000000, -1.000000000000000000, -1.878145495644181100E-016 ) ) ;
#222 = PERSON_AND_ORGANIZATION ( #253, #194 ) ;
#223 = PRODUCT_DEFINITION ( 'UNKNOWN', '', #149, #170 ) ;
#224 = CARTESIAN_POINT ( 'NONE',  ( 0.0000000000000000000, -4.207670011193372400E-017, 0.07668114938551640100 ) ) ;
#225 = CC_DESIGN_PERSON_AND_ORGANIZATION_ASSIGNMENT ( #273, #260, ( #149 ) ) ;
#226 = DIRECTION ( 'NONE',  ( 0.0000000000000000000, -0.6370618607977727200, 0.7708126786171068900 ) ) ;
#227 = APPROVAL_PERSON_ORGANIZATION ( #22, #202, #6 ) ;
#228 = APPROVAL_STATUS ( 'not_yet_approved' ) ;
#229 = CARTESIAN_POINT ( 'NONE',  ( 0.0000000000000000000, -0.2500000000000000000, -0.05296729979521180200 ) ) ;
#230 = CARTESIAN_POINT ( 'NONE',  ( 0.0000000000000000000, 1.284325832090147500E-016, -0.08459180148407732800 ) ) ;
#231 = ADVANCED_FACE ( 'NONE', ( #111 ), #93, .T. ) ;
#232 = PERSON_AND_ORGANIZATION_ROLE ( 'creator' ) ;
#233 = CC_DESIGN_DATE_AND_TIME_ASSIGNMENT ( #140, #154, ( #223 ) ) ;
#234 = CARTESIAN_POINT ( 'NONE',  ( 0.0000000000000000000, -3.414809992080329000E-017, 1.243045993791513300 ) ) ;
#235 = EDGE_CURVE ( 'NONE', #314, #94, #102, .T. ) ;
#236 = AXIS2_PLACEMENT_3D ( 'NONE', #64, #62, #209 ) ;
#237 = CARTESIAN_POINT ( 'NONE',  ( -2.993431481629367800E-017, -0.2444322300693971800, 0.08224891931611910700 ) ) ;
#238 = AXIS2_PLACEMENT_3D ( 'NONE', #220, #214, #221 ) ;
#239 = CC_DESIGN_PERSON_AND_ORGANIZATION_ASSIGNMENT ( #107, #30, ( #149 ) ) ;
#240 = EDGE_LOOP ( 'NONE', ( #58, #286, #275 ) ) ;
#241 = AXIS2_PLACEMENT_3D ( 'NONE', #112, #166, #109 ) ;
#242 = APPROVAL_PERSON_ORGANIZATION ( #53, #71, #317 ) ;
#243 = PERSON_AND_ORGANIZATION ( #253, #194 ) ;
#244 = DIRECTION ( 'NONE',  ( 0.0000000000000000000, -1.000000000000000000, -1.761736755665221500E-016 ) ) ;
#245 = DIRECTION ( 'NONE',  ( 0.0000000000000000000, 1.836909530733567100E-016, -1.000000000000000000 ) ) ;
#246 = LINE ( 'NONE', #103, #99 ) ;
#247 = DIRECTION ( 'NONE',  ( -0.0000000000000000000, -1.836909530733567100E-016, 1.000000000000000000 ) ) ;
#248 = CARTESIAN_POINT ( 'NONE',  ( 0.0000000000000000000, 2.056314105518306800E-016, -0.06229597575490401100 ) ) ;
#249 = EDGE_CURVE ( 'NONE', #17, #67, #101, .T. ) ;
#250 = DIRECTION ( 'NONE',  ( 0.0000000000000000000, -1.000000000000000000, -2.057675672827005600E-016 ) ) ;
#251 = CALENDAR_DATE ( 2018, 1, 6 ) ;
#252 = SECURITY_CLASSIFICATION ( '', '', #311 ) ;
#253 = PERSON ( 'UNSPECIFIED', 'UNSPECIFIED', 'UNSPECIFIED', ('UNSPECIFIED'), ('UNSPECIFIED'), ('UNSPECIFIED') ) ;
#254 = CARTESIAN_POINT ( 'NONE',  ( 0.0000000000000000000, -3.414809992080329000E-017, 1.243045993791513300 ) ) ;
#255 = EDGE_CURVE ( 'NONE', #17, #54, #92, .T. ) ;
#256 = CARTESIAN_POINT ( 'NONE',  ( 0.0000000000000000000, 1.219663927629536400E-016, 0.03351843473639508400 ) ) ;
#257 = LOCAL_TIME ( 14, 11, 47.00000000000000000, #50 ) ;
#258 = CLOSED_SHELL ( 'NONE', ( #276, #9, #231, #2, #18, #63, #187, #96, #190, #74 ) ) ;
#259 = CIRCLE ( 'NONE', #44, 0.2499999999999999700 ) ;
#260 = PERSON_AND_ORGANIZATION_ROLE ( 'creator' ) ;
#261 = CARTESIAN_POINT ( 'NONE',  ( 3.061616997868382400E-017, 0.2499999999999999200, -0.05296729979521171800 ) ) ;
#262 = EDGE_CURVE ( 'NONE', #157, #164, #122, .T. ) ;
#263 = EDGE_LOOP ( 'NONE', ( #207, #152, #42 ) ) ;
#264 = ORIENTED_EDGE ( 'NONE', *, *, #268, .F. ) ;
#265 = DIRECTION ( 'NONE',  ( 1.000000000000000000, 0.0000000000000000000, 0.0000000000000000000 ) ) ;
#266 = SHAPE_DEFINITION_REPRESENTATION ( #327, #65 ) ;
#267 = ORIENTED_EDGE ( 'NONE', *, *, #315, .T. ) ;
#268 = EDGE_CURVE ( 'NONE', #67, #54, #113, .T. ) ;
#269 = AXIS2_PLACEMENT_3D ( 'NONE', #161, #159, #146 ) ;
#270 = ORIENTED_EDGE ( 'NONE', *, *, #20, .T. ) ;
#271 = CC_DESIGN_PERSON_AND_ORGANIZATION_ASSIGNMENT ( #323, #304, ( #252 ) ) ;
#272 = DIRECTION ( 'NONE',  ( 0.0000000000000000000, 1.836909530733565600E-016, -1.000000000000000000 ) ) ;
#273 = PERSON_AND_ORGANIZATION ( #253, #194 ) ;
#274 = CALENDAR_DATE ( 2018, 1, 6 ) ;
#275 = ORIENTED_EDGE ( 'NONE', *, *, #46, .T. ) ;
#276 = ADVANCED_FACE ( 'NONE', ( #133 ), #326, .T. ) ;
#277 = ORIENTED_EDGE ( 'NONE', *, *, #235, .F. ) ;
#278 = APPROVAL_ROLE ( '' ) ;
#279 = COORDINATED_UNIVERSAL_TIME_OFFSET ( 5, 0, .BEHIND. ) ;
#280 = EDGE_LOOP ( 'NONE', ( #184, #290, #171, #267 ) ) ;
#281 = EDGE_CURVE ( 'NONE', #11, #94, #151, .T. ) ;
#282 = DIRECTION ( 'NONE',  ( 0.0000000000000000000, 1.000000000000000000, 1.707404996040164800E-016 ) ) ;
#283 = DIRECTION ( 'NONE',  ( 8.659560562354960000E-017, -0.7071067811865495700, -0.7071067811865454600 ) ) ;
#284 = EDGE_CURVE ( 'NONE', #67, #158, #131, .T. ) ;
#285 = CC_DESIGN_DATE_AND_TIME_ASSIGNMENT ( #33, #150, ( #252 ) ) ;
#286 = ORIENTED_EDGE ( 'NONE', *, *, #262, .T. ) ;
#287 = AXIS2_PLACEMENT_3D ( 'NONE', #210, #106, #105 ) ;
#288 = CARTESIAN_POINT ( 'NONE',  ( 3.061616997868382400E-017, -0.2500000000000000000, 0.07668114938551635900 ) ) ;
#289 = ORIENTED_EDGE ( 'NONE', *, *, #117, .T. ) ;
#290 = ORIENTED_EDGE ( 'NONE', *, *, #83, .F. ) ;
#291 = CARTESIAN_POINT ( 'NONE',  ( 0.0000000000000000000, -0.2500000000000000000, 0.03351843473639499300 ) ) ;
#292 = DIRECTION ( 'NONE',  ( -0.0000000000000000000, -1.836909530733565600E-016, 1.000000000000000000 ) ) ;
#293 = DIRECTION ( 'NONE',  ( -0.0000000000000000000, -1.836909530733565600E-016, 1.000000000000000000 ) ) ;
#294 = AXIS2_PLACEMENT_3D ( 'NONE', #118, #115, #114 ) ;
#295 = DIRECTION ( 'NONE',  ( 0.0000000000000000000, 1.000000000000000000, 2.142956733757636600E-016 ) ) ;
#296 = DIRECTION ( 'NONE',  ( 0.0000000000000000000, -1.000000000000000000, -2.095556296592407800E-016 ) ) ;
#297 = APPROVAL ( #228, 'UNSPECIFIED' ) ;
#298 = EDGE_LOOP ( 'NONE', ( #264, #308, #325, #52 ) ) ;
#299 = EDGE_LOOP ( 'NONE', ( #1, #167, #289, #130 ) ) ;
#300 = DIRECTION ( 'NONE',  ( -0.0000000000000000000, -1.836909530733565600E-016, 1.000000000000000000 ) ) ;
#301 = UNCERTAINTY_MEASURE_WITH_UNIT (LENGTH_MEASURE( 1.000000000000000100E-005 ), #197, 'distance_accuracy_value', 'NONE');
#302 = EDGE_CURVE ( 'NONE', #158, #94, #138, .T. ) ;
#303 = LINE ( 'NONE', #288, #77 ) ;
#304 = PERSON_AND_ORGANIZATION_ROLE ( 'classification_officer' ) ;
#305 = CARTESIAN_POINT ( 'NONE',  ( 0.0000000000000000000, -4.309944907697932100E-017, 0.08224891931611914800 ) ) ;
#306 = LOCAL_TIME ( 14, 11, 47.00000000000000000, #127 ) ;
#307 = AXIS2_PLACEMENT_3D ( 'NONE', #148, #72, #108 ) ;
#308 = ORIENTED_EDGE ( 'NONE', *, *, #284, .T. ) ;
#309 = ORIENTED_EDGE ( 'NONE', *, *, #12, .T. ) ;
#310 = FACE_OUTER_BOUND ( 'NONE', #120, .T. ) ;
#311 = SECURITY_CLASSIFICATION_LEVEL ( 'unclassified' ) ;
#312 = MANIFOLD_SOLID_BREP ( '21997-001-1-solid1', #258 ) ;
#313 = CC_DESIGN_APPROVAL ( #297, ( #252 ) ) ;
#314 = VERTEX_POINT ( 'NONE', #40 ) ;
#315 = EDGE_CURVE ( 'NONE', #94, #11, #259, .T. ) ;
#316 = CARTESIAN_POINT ( 'NONE',  ( 0.0000000000000000000, -3.414809992080329000E-017, 0.03351843473639503500 ) ) ;
#317 = APPROVAL_ROLE ( '' ) ;
#318 = CALENDAR_DATE ( 2018, 1, 6 ) ;
#319 = MECHANICAL_CONTEXT ( 'NONE', #57, 'mechanical' ) ;
#320 = EDGE_CURVE ( 'NONE', #158, #219, #126, .T. ) ;
#321 = CARTESIAN_POINT ( 'NONE',  ( 0.0000000000000000000, -3.414809992080329000E-017, 0.6709200095395447800 ) ) ;
#322 = APPROVAL_DATE_TIME ( #198, #202 ) ;
#323 = PERSON_AND_ORGANIZATION ( #253, #194 ) ;
#324 = CALENDAR_DATE ( 2018, 1, 6 ) ;
#325 = ORIENTED_EDGE ( 'NONE', *, *, #12, .F. ) ;
#326 = CONICAL_SURFACE ( 'NONE', #241, 0.2499999999999999700, 0.6906804910315419400 ) ;
#327 = PRODUCT_DEFINITION_SHAPE ( 'NONE', 'NONE',  #223 ) ;
#328 = CC_DESIGN_SECURITY_CLASSIFICATION ( #252, ( #149 ) ) ;
#329 = CARTESIAN_POINT ( 'NONE',  ( 0.0000000000000000000, -4.309944907697932100E-017, 0.08224891931611914800 ) ) ;
#330 = CIRCLE ( 'NONE', #208, 0.2499999999999999700 ) ;
ENDSEC;
END-ISO-10303-21;
