ISO-10303-21;
HEADER;
FILE_DESCRIPTION (( 'STEP AP203' ),
    '1' );
FILE_NAME ('Web Model 32947_32947.step',
    '2019-01-17T14:36:42',
    ( '' ),
    ( '' ),
    'SwSTEP 2.0',
    'SolidWorks 2016',
    '' );
FILE_SCHEMA (( 'CONFIG_CONTROL_DESIGN' ));
ENDSEC;

DATA;
#1 = APPROVAL ( #35, 'UNSPECIFIED' ) ;
#2 = DIRECTION ( 'NONE',  ( 0.0000000000000000000, 0.0000000000000000000, 1.000000000000000000 ) ) ;
#3 = PERSON_AND_ORGANIZATION ( #65, #82 ) ;
#4 = PLANE ( 'NONE',  #105 ) ;
#5 = EDGE_CURVE ( 'NONE', #68, #30, #118, .T. ) ;
#6 = APPROVAL ( #90, 'UNSPECIFIED' ) ;
#7 = COORDINATED_UNIVERSAL_TIME_OFFSET ( 5, 0, .BEHIND. ) ;
#8 = EDGE_CURVE ( 'NONE', #30, #68, #165, .T. ) ;
#9 = DIRECTION ( 'NONE',  ( 1.000000000000000000, 0.0000000000000000000, -0.0000000000000000000 ) ) ;
#10 = APPROVAL_ROLE ( '' ) ;
#11 = PERSON_AND_ORGANIZATION ( #65, #82 ) ;
#12 = APPROVAL_STATUS ( 'not_yet_approved' ) ;
#13 = UNCERTAINTY_MEASURE_WITH_UNIT (LENGTH_MEASURE( 1.000000000000000100E-005 ), #49, 'distance_accuracy_value', 'NONE');
#14 = LINE ( 'NONE', #145, #146 ) ;
#15 = CC_DESIGN_APPROVAL ( #1, ( #159 ) ) ;
#16 = EDGE_CURVE ( 'NONE', #84, #75, #22, .T. ) ;
#17 = CC_DESIGN_PERSON_AND_ORGANIZATION_ASSIGNMENT ( #11, #50, ( #159 ) ) ;
#18 = CYLINDRICAL_SURFACE ( 'NONE', #109, 5.000000000000000000 ) ;
#19 = DIRECTION ( 'NONE',  ( 0.0000000000000000000, 0.0000000000000000000, 1.000000000000000000 ) ) ;
#20 = CARTESIAN_POINT ( 'NONE',  ( -5.000000000000000000, 0.0000000000000000000, 1.000000000000000000 ) ) ;
#21 = EDGE_CURVE ( 'NONE', #30, #84, #14, .T. ) ;
#22 = CIRCLE ( 'NONE', #76, 5.000000000000000000 ) ;
#23 = DIRECTION ( 'NONE',  ( 1.000000000000000000, 0.0000000000000000000, 0.0000000000000000000 ) ) ;
#24 = PERSON_AND_ORGANIZATION_ROLE ( 'design_supplier' ) ;
#25 = DIRECTION ( 'NONE',  ( -0.0000000000000000000, -0.0000000000000000000, -1.000000000000000000 ) ) ;
#26 = EDGE_CURVE ( 'NONE', #68, #75, #87, .T. ) ;
#27 =( GEOMETRIC_REPRESENTATION_CONTEXT ( 3 ) GLOBAL_UNCERTAINTY_ASSIGNED_CONTEXT ( ( #13 ) ) GLOBAL_UNIT_ASSIGNED_CONTEXT ( ( #49, #172, #157 ) ) REPRESENTATION_CONTEXT ( 'NONE', 'WORKASPACE' ) );
#28 = FACE_OUTER_BOUND ( 'NONE', #44, .T. ) ;
#29 = CALENDAR_DATE ( 2019, 17, 1 ) ;
#30 = VERTEX_POINT ( 'NONE', #20 ) ;
#31 = APPROVAL_DATE_TIME ( #92, #6 ) ;
#32 = DIRECTION ( 'NONE',  ( 0.0000000000000000000, 0.0000000000000000000, 1.000000000000000000 ) ) ;
#33 = CC_DESIGN_PERSON_AND_ORGANIZATION_ASSIGNMENT ( #51, #107, ( #73 ) ) ;
#34 = ORIENTED_EDGE ( 'NONE', *, *, #21, .T. ) ;
#35 = APPROVAL_STATUS ( 'not_yet_approved' ) ;
#36 = DIRECTION ( 'NONE',  ( 0.0000000000000000000, 0.0000000000000000000, 1.000000000000000000 ) ) ;
#37 = PRODUCT_DEFINITION_SHAPE ( 'NONE', 'NONE',  #138 ) ;
#38 = ORIENTED_EDGE ( 'NONE', *, *, #21, .F. ) ;
#39 = CC_DESIGN_PERSON_AND_ORGANIZATION_ASSIGNMENT ( #127, #158, ( #138 ) ) ;
#40 = ADVANCED_FACE ( 'NONE', ( #99 ), #4, .F. ) ;
#41 = EDGE_LOOP ( 'NONE', ( #140, #96, #149, #38 ) ) ;
#42 = CALENDAR_DATE ( 2019, 17, 1 ) ;
#43 = CC_DESIGN_DATE_AND_TIME_ASSIGNMENT ( #79, #124, ( #159 ) ) ;
#44 = EDGE_LOOP ( 'NONE', ( #67, #80 ) ) ;
#45 = DIRECTION ( 'NONE',  ( 1.000000000000000000, 0.0000000000000000000, 0.0000000000000000000 ) ) ;
#46 = PERSON_AND_ORGANIZATION ( #65, #82 ) ;
#47 = CARTESIAN_POINT ( 'NONE',  ( 0.0000000000000000000, 0.0000000000000000000, 1.000000000000000000 ) ) ;
#48 = DIRECTION ( 'NONE',  ( 0.0000000000000000000, 0.0000000000000000000, 1.000000000000000000 ) ) ;
#49 =( LENGTH_UNIT ( ) NAMED_UNIT ( * ) SI_UNIT ( .MILLI., .METRE. ) );
#50 = PERSON_AND_ORGANIZATION_ROLE ( 'classification_officer' ) ;
#51 = PERSON_AND_ORGANIZATION ( #65, #82 ) ;
#52 = APPROVAL_ROLE ( '' ) ;
#53 = DATE_AND_TIME ( #29, #88 ) ;
#54 = CC_DESIGN_APPROVAL ( #171, ( #73 ) ) ;
#55 = AXIS2_PLACEMENT_3D ( 'NONE', #132, #48, #23 ) ;
#56 = DATE_AND_TIME ( #59, #64 ) ;
#57 = CC_DESIGN_SECURITY_CLASSIFICATION ( #159, ( #73 ) ) ;
#58 = CARTESIAN_POINT ( 'NONE',  ( 5.000000000000000000, 6.123233995736766300E-016, 1.000000000000000000 ) ) ;
#59 = CALENDAR_DATE ( 2019, 17, 1 ) ;
#60 = APPLICATION_PROTOCOL_DEFINITION ( 'international standard', 'config_control_design', 1994, #147 ) ;
#61 = DIRECTION ( 'NONE',  ( 1.000000000000000000, 0.0000000000000000000, 0.0000000000000000000 ) ) ;
#62 = DIRECTION ( 'NONE',  ( 0.0000000000000000000, 0.0000000000000000000, 1.000000000000000000 ) ) ;
#63 = AXIS2_PLACEMENT_3D ( 'NONE', #47, #74, #125 ) ;
#64 = LOCAL_TIME ( 9, 36, 42.00000000000000000, #97 ) ;
#65 = PERSON ( 'UNSPECIFIED', 'UNSPECIFIED', 'UNSPECIFIED', ('UNSPECIFIED'), ('UNSPECIFIED'), ('UNSPECIFIED') ) ;
#66 = AXIS2_PLACEMENT_3D ( 'NONE', #167, #2, #168 ) ;
#67 = ORIENTED_EDGE ( 'NONE', *, *, #8, .T. ) ;
#68 = VERTEX_POINT ( 'NONE', #58 ) ;
#69 = CIRCLE ( 'NONE', #175, 5.000000000000000000 ) ;
#70 = EDGE_LOOP ( 'NONE', ( #115, #113 ) ) ;
#71 = ORIENTED_EDGE ( 'NONE', *, *, #26, .F. ) ;
#72 = DIRECTION ( 'NONE',  ( -0.0000000000000000000, -0.0000000000000000000, -1.000000000000000000 ) ) ;
#73 = PRODUCT_DEFINITION_FORMATION_WITH_SPECIFIED_SOURCE ( 'ANY', '', #150, .NOT_KNOWN. ) ;
#74 = DIRECTION ( 'NONE',  ( -0.0000000000000000000, -0.0000000000000000000, -1.000000000000000000 ) ) ;
#75 = VERTEX_POINT ( 'NONE', #139 ) ;
#76 = AXIS2_PLACEMENT_3D ( 'NONE', #86, #19, #45 ) ;
#77 = MECHANICAL_CONTEXT ( 'NONE', #147, 'mechanical' ) ;
#78 = FACE_OUTER_BOUND ( 'NONE', #106, .T. ) ;
#79 = DATE_AND_TIME ( #95, #154 ) ;
#80 = ORIENTED_EDGE ( 'NONE', *, *, #5, .T. ) ;
#81 = DESIGN_CONTEXT ( 'detailed design', #169, 'design' ) ;
#82 = ORGANIZATION ( 'UNSPECIFIED', 'UNSPECIFIED', '' ) ;
#83 = PERSON_AND_ORGANIZATION ( #65, #82 ) ;
#84 = VERTEX_POINT ( 'NONE', #156 ) ;
#85 = COORDINATED_UNIVERSAL_TIME_OFFSET ( 5, 0, .BEHIND. ) ;
#86 = CARTESIAN_POINT ( 'NONE',  ( 0.0000000000000000000, 0.0000000000000000000, 0.0000000000000000000 ) ) ;
#87 = LINE ( 'NONE', #116, #126 ) ;
#88 = LOCAL_TIME ( 9, 36, 42.00000000000000000, #7 ) ;
#89 = PLANE ( 'NONE',  #144 ) ;
#90 = APPROVAL_STATUS ( 'not_yet_approved' ) ;
#91 = COORDINATED_UNIVERSAL_TIME_OFFSET ( 5, 0, .BEHIND. ) ;
#92 = DATE_AND_TIME ( #42, #120 ) ;
#93 = DIRECTION ( 'NONE',  ( -1.000000000000000000, 0.0000000000000000000, 0.0000000000000000000 ) ) ;
#94 = PERSON_AND_ORGANIZATION_ROLE ( 'design_owner' ) ;
#95 = CALENDAR_DATE ( 2019, 17, 1 ) ;
#96 = ORIENTED_EDGE ( 'NONE', *, *, #26, .T. ) ;
#97 = COORDINATED_UNIVERSAL_TIME_OFFSET ( 5, 0, .BEHIND. ) ;
#98 = DATE_AND_TIME ( #137, #142 ) ;
#99 = FACE_OUTER_BOUND ( 'NONE', #70, .T. ) ;
#100 = APPROVAL_DATE_TIME ( #53, #1 ) ;
#101 = APPROVAL_PERSON_ORGANIZATION ( #166, #6, #10 ) ;
#102 = MANIFOLD_SOLID_BREP ( 'Extrude1', #119 ) ;
#103 = PERSON_AND_ORGANIZATION ( #65, #82 ) ;
#104 = DIRECTION ( 'NONE',  ( 0.0000000000000000000, 0.0000000000000000000, 1.000000000000000000 ) ) ;
#105 = AXIS2_PLACEMENT_3D ( 'NONE', #121, #32, #133 ) ;
#106 = EDGE_LOOP ( 'NONE', ( #71, #153, #34, #136 ) ) ;
#107 = PERSON_AND_ORGANIZATION_ROLE ( 'creator' ) ;
#108 = ADVANCED_FACE ( 'NONE', ( #151 ), #135, .T. ) ;
#109 = AXIS2_PLACEMENT_3D ( 'NONE', #160, #25, #93 ) ;
#110 = CARTESIAN_POINT ( 'NONE',  ( 0.0000000000000000000, 0.0000000000000000000, 0.0000000000000000000 ) ) ;
#111 = DATE_TIME_ROLE ( 'creation_date' ) ;
#112 = COORDINATED_UNIVERSAL_TIME_OFFSET ( 5, 0, .BEHIND. ) ;
#113 = ORIENTED_EDGE ( 'NONE', *, *, #164, .F. ) ;
#114 = PRODUCT_RELATED_PRODUCT_CATEGORY ( 'detail', '', ( #150 ) ) ;
#115 = ORIENTED_EDGE ( 'NONE', *, *, #16, .F. ) ;
#116 = CARTESIAN_POINT ( 'NONE',  ( 5.000000000000000000, 6.123233995736766300E-016, 1.000000000000000000 ) ) ;
#117 = CC_DESIGN_APPROVAL ( #6, ( #138 ) ) ;
#118 = CIRCLE ( 'NONE', #55, 5.000000000000000000 ) ;
#119 = CLOSED_SHELL ( 'NONE', ( #108, #134, #174, #40 ) ) ;
#120 = LOCAL_TIME ( 9, 36, 42.00000000000000000, #112 ) ;
#121 = CARTESIAN_POINT ( 'NONE',  ( 0.0000000000000000000, 0.0000000000000000000, 0.0000000000000000000 ) ) ;
#122 = DIRECTION ( 'NONE',  ( -0.0000000000000000000, -0.0000000000000000000, -1.000000000000000000 ) ) ;
#123 = CARTESIAN_POINT ( 'NONE',  ( 0.0000000000000000000, 0.0000000000000000000, 0.0000000000000000000 ) ) ;
#124 = DATE_TIME_ROLE ( 'classification_date' ) ;
#125 = DIRECTION ( 'NONE',  ( -1.000000000000000000, 0.0000000000000000000, 0.0000000000000000000 ) ) ;
#126 = VECTOR ( 'NONE', #72, 1000.000000000000000 ) ;
#127 = PERSON_AND_ORGANIZATION ( #65, #82 ) ;
#128 = APPROVAL_ROLE ( '' ) ;
#129 = SECURITY_CLASSIFICATION_LEVEL ( 'unclassified' ) ;
#130 = AXIS2_PLACEMENT_3D ( 'NONE', #110, #36, #61 ) ;
#131 = ADVANCED_BREP_SHAPE_REPRESENTATION ( 'Web Model 32947_32947', ( #102, #130 ), #27 ) ;
#132 = CARTESIAN_POINT ( 'NONE',  ( 0.0000000000000000000, 0.0000000000000000000, 1.000000000000000000 ) ) ;
#133 = DIRECTION ( 'NONE',  ( 1.000000000000000000, 0.0000000000000000000, -0.0000000000000000000 ) ) ;
#134 = ADVANCED_FACE ( 'NONE', ( #78 ), #18, .T. ) ;
#135 = CYLINDRICAL_SURFACE ( 'NONE', #63, 5.000000000000000000 ) ;
#136 = ORIENTED_EDGE ( 'NONE', *, *, #16, .T. ) ;
#137 = CALENDAR_DATE ( 2019, 17, 1 ) ;
#138 = PRODUCT_DEFINITION ( 'UNKNOWN', '', #73, #81 ) ;
#139 = CARTESIAN_POINT ( 'NONE',  ( 5.000000000000000000, 6.123233995736766300E-016, 0.0000000000000000000 ) ) ;
#140 = ORIENTED_EDGE ( 'NONE', *, *, #5, .F. ) ;
#141 = CC_DESIGN_DATE_AND_TIME_ASSIGNMENT ( #98, #111, ( #138 ) ) ;
#142 = LOCAL_TIME ( 9, 36, 42.00000000000000000, #85 ) ;
#143 = CC_DESIGN_PERSON_AND_ORGANIZATION_ASSIGNMENT ( #3, #94, ( #150 ) ) ;
#144 = AXIS2_PLACEMENT_3D ( 'NONE', #148, #62, #9 ) ;
#145 = CARTESIAN_POINT ( 'NONE',  ( -5.000000000000000000, 0.0000000000000000000, 1.000000000000000000 ) ) ;
#146 = VECTOR ( 'NONE', #122, 1000.000000000000000 ) ;
#147 = APPLICATION_CONTEXT ( 'configuration controlled 3d designs of mechanical parts and assemblies' ) ;
#148 = CARTESIAN_POINT ( 'NONE',  ( 0.0000000000000000000, 0.0000000000000000000, 1.000000000000000000 ) ) ;
#149 = ORIENTED_EDGE ( 'NONE', *, *, #164, .T. ) ;
#150 = PRODUCT ( 'Web Model 32947_32947', 'Web Model 32947_32947', '', ( #77 ) ) ;
#151 = FACE_OUTER_BOUND ( 'NONE', #41, .T. ) ;
#152 = APPROVAL_PERSON_ORGANIZATION ( #83, #1, #128 ) ;
#153 = ORIENTED_EDGE ( 'NONE', *, *, #8, .F. ) ;
#154 = LOCAL_TIME ( 9, 36, 42.00000000000000000, #91 ) ;
#155 = APPROVAL_PERSON_ORGANIZATION ( #103, #171, #52 ) ;
#156 = CARTESIAN_POINT ( 'NONE',  ( -5.000000000000000000, 0.0000000000000000000, 0.0000000000000000000 ) ) ;
#157 =( NAMED_UNIT ( * ) SI_UNIT ( $, .STERADIAN. ) SOLID_ANGLE_UNIT ( ) );
#158 = PERSON_AND_ORGANIZATION_ROLE ( 'creator' ) ;
#159 = SECURITY_CLASSIFICATION ( '', '', #129 ) ;
#160 = CARTESIAN_POINT ( 'NONE',  ( 0.0000000000000000000, 0.0000000000000000000, 1.000000000000000000 ) ) ;
#161 = SHAPE_DEFINITION_REPRESENTATION ( #37, #131 ) ;
#162 = CC_DESIGN_PERSON_AND_ORGANIZATION_ASSIGNMENT ( #46, #24, ( #73 ) ) ;
#163 = APPROVAL_DATE_TIME ( #56, #171 ) ;
#164 = EDGE_CURVE ( 'NONE', #75, #84, #69, .T. ) ;
#165 = CIRCLE ( 'NONE', #66, 5.000000000000000000 ) ;
#166 = PERSON_AND_ORGANIZATION ( #65, #82 ) ;
#167 = CARTESIAN_POINT ( 'NONE',  ( 0.0000000000000000000, 0.0000000000000000000, 1.000000000000000000 ) ) ;
#168 = DIRECTION ( 'NONE',  ( 1.000000000000000000, 0.0000000000000000000, 0.0000000000000000000 ) ) ;
#169 = APPLICATION_CONTEXT ( 'configuration controlled 3d designs of mechanical parts and assemblies' ) ;
#170 = APPLICATION_PROTOCOL_DEFINITION ( 'international standard', 'config_control_design', 1994, #169 ) ;
#171 = APPROVAL ( #12, 'UNSPECIFIED' ) ;
#172 =( NAMED_UNIT ( * ) PLANE_ANGLE_UNIT ( ) SI_UNIT ( $, .RADIAN. ) );
#173 = DIRECTION ( 'NONE',  ( 1.000000000000000000, 0.0000000000000000000, 0.0000000000000000000 ) ) ;
#174 = ADVANCED_FACE ( 'NONE', ( #28 ), #89, .T. ) ;
#175 = AXIS2_PLACEMENT_3D ( 'NONE', #123, #104, #173 ) ;
ENDSEC;
END-ISO-10303-21;
