ISO-10303-21;
HEADER;
FILE_DESCRIPTION (( 'STEP AP203' ),
    '1' );
FILE_NAME ('Web Model 17562_22071.step',
    '2022-06-17T14:38:38',
    ( 'WC' ),
    ( 'Windows Central' ),
    'SwSTEP 2.0',
    'SolidWorks 2021',
    '' );
FILE_SCHEMA (( 'CONFIG_CONTROL_DESIGN' ));
ENDSEC;

DATA;
#1 = APPROVAL_ROLE ( '' ) ;
#2 = ORIENTED_EDGE ( 'NONE', *, *, #170, .F. ) ;
#3 = MECHANICAL_CONTEXT ( 'NONE', #30, 'mechanical' ) ;
#4 = DIRECTION ( 'NONE',  ( 1.000000000000000000, 0.000000000000000000, -0.000000000000000000 ) ) ;
#5 = ORIENTED_EDGE ( 'NONE', *, *, #139, .F. ) ;
#6 = AXIS2_PLACEMENT_3D ( 'NONE', #156, #12, #4 ) ;
#7 = APPROVAL ( #98, 'UNSPECIFIED' ) ;
#8 = CLOSED_SHELL ( 'NONE', ( #92, #161, #62, #75 ) ) ;
#9 = PLANE ( 'NONE',  #166 ) ;
#10 = PERSON_AND_ORGANIZATION ( #55, #81 ) ;
#11 =( GEOMETRIC_REPRESENTATION_CONTEXT ( 3 ) GLOBAL_UNCERTAINTY_ASSIGNED_CONTEXT ( ( #167 ) ) GLOBAL_UNIT_ASSIGNED_CONTEXT ( ( #28, #13, #25 ) ) REPRESENTATION_CONTEXT ( 'NONE', 'WORKASPACE' ) );
#12 = DIRECTION ( 'NONE',  ( 0.000000000000000000, 0.000000000000000000, 1.000000000000000000 ) ) ;
#13 =( NAMED_UNIT ( * ) PLANE_ANGLE_UNIT ( ) SI_UNIT ( $, .RADIAN. ) );
#14 = CARTESIAN_POINT ( 'NONE',  ( 2.460629921259842590, 3.013402556957070180E-16, 0.000000000000000000 ) ) ;
#15 = DIRECTION ( 'NONE',  ( -0.000000000000000000, -0.000000000000000000, -1.000000000000000000 ) ) ;
#16 = CALENDAR_DATE ( 2022, 17, 6 ) ;
#17 = SECURITY_CLASSIFICATION_LEVEL ( 'unclassified' ) ;
#18 = PERSON_AND_ORGANIZATION_ROLE ( 'classification_officer' ) ;
#19 = CALENDAR_DATE ( 2022, 17, 6 ) ;
#20 = LOCAL_TIME ( 10, 38, 38.00000000000000000, #118 ) ;
#21 = CC_DESIGN_DATE_AND_TIME_ASSIGNMENT ( #80, #91, ( #39 ) ) ;
#22 = LOCAL_TIME ( 10, 38, 38.00000000000000000, #162 ) ;
#23 = LENGTH_MEASURE_WITH_UNIT ( LENGTH_MEASURE( 0.02539999999999999897 ), #146 );
#24 = EDGE_LOOP ( 'NONE', ( #72, #174, #168, #132 ) ) ;
#25 =( NAMED_UNIT ( * ) SI_UNIT ( $, .STERADIAN. ) SOLID_ANGLE_UNIT ( ) );
#26 = EDGE_LOOP ( 'NONE', ( #85, #134 ) ) ;
#27 = DATE_AND_TIME ( #43, #83 ) ;
#28 =( CONVERSION_BASED_UNIT ( 'INCH', #23 ) LENGTH_UNIT ( ) NAMED_UNIT ( #163 ) );
#29 = APPROVAL_PERSON_ORGANIZATION ( #10, #82, #1 ) ;
#30 = APPLICATION_CONTEXT ( 'configuration controlled 3d designs of mechanical parts and assemblies' ) ;
#31 = CYLINDRICAL_SURFACE ( 'NONE', #68, 2.460629921259842590 ) ;
#32 = PRODUCT ( 'Web Model 17562_22071', 'Web Model 17562_22071', '', ( #3 ) ) ;
#33 = DIRECTION ( 'NONE',  ( -0.000000000000000000, -0.000000000000000000, -1.000000000000000000 ) ) ;
#34 = ORIENTED_EDGE ( 'NONE', *, *, #155, .T. ) ;
#35 = AXIS2_PLACEMENT_3D ( 'NONE', #110, #152, #41 ) ;
#36 = CC_DESIGN_PERSON_AND_ORGANIZATION_ASSIGNMENT ( #65, #18, ( #39 ) ) ;
#37 = DATE_AND_TIME ( #48, #20 ) ;
#38 = AXIS2_PLACEMENT_3D ( 'NONE', #149, #175, #52 ) ;
#39 = SECURITY_CLASSIFICATION ( '', '', #17 ) ;
#40 = APPLICATION_CONTEXT ( 'configuration controlled 3d designs of mechanical parts and assemblies' ) ;
#41 = DIRECTION ( 'NONE',  ( 1.000000000000000000, 0.000000000000000000, 0.000000000000000000 ) ) ;
#42 = EDGE_CURVE ( 'NONE', #104, #49, #97, .T. ) ;
#43 = CALENDAR_DATE ( 2022, 17, 6 ) ;
#44 = APPROVAL_STATUS ( 'not_yet_approved' ) ;
#45 = CARTESIAN_POINT ( 'NONE',  ( -2.460629921259842590, 0.000000000000000000, 0.2362204724409449064 ) ) ;
#46 = PERSON_AND_ORGANIZATION ( #55, #81 ) ;
#47 = VERTEX_POINT ( 'NONE', #119 ) ;
#48 = CALENDAR_DATE ( 2022, 17, 6 ) ;
#49 = VERTEX_POINT ( 'NONE', #63 ) ;
#50 = CYLINDRICAL_SURFACE ( 'NONE', #130, 2.460629921259842590 ) ;
#51 = DIRECTION ( 'NONE',  ( 1.000000000000000000, 0.000000000000000000, 0.000000000000000000 ) ) ;
#52 = DIRECTION ( 'NONE',  ( 1.000000000000000000, 0.000000000000000000, 0.000000000000000000 ) ) ;
#53 = PRODUCT_DEFINITION ( 'UNKNOWN', '', #84, #99 ) ;
#54 = LOCAL_TIME ( 10, 38, 38.00000000000000000, #164 ) ;
#55 = PERSON ( 'UNSPECIFIED', 'UNSPECIFIED', 'UNSPECIFIED', ('UNSPECIFIED'), ('UNSPECIFIED'), ('UNSPECIFIED') ) ;
#56 = APPROVAL_ROLE ( '' ) ;
#57 = CC_DESIGN_SECURITY_CLASSIFICATION ( #39, ( #84 ) ) ;
#58 = PERSON_AND_ORGANIZATION ( #55, #81 ) ;
#59 = EDGE_LOOP ( 'NONE', ( #5, #64 ) ) ;
#60 = VERTEX_POINT ( 'NONE', #45 ) ;
#61 = CALENDAR_DATE ( 2022, 17, 6 ) ;
#62 = ADVANCED_FACE ( 'NONE', ( #108 ), #9, .T. ) ;
#63 = CARTESIAN_POINT ( 'NONE',  ( -2.460629921259842590, 0.000000000000000000, 0.000000000000000000 ) ) ;
#64 = ORIENTED_EDGE ( 'NONE', *, *, #42, .F. ) ;
#65 = PERSON_AND_ORGANIZATION ( #55, #81 ) ;
#66 = APPROVAL_DATE_TIME ( #96, #126 ) ;
#67 = CC_DESIGN_APPROVAL ( #126, ( #39 ) ) ;
#68 = AXIS2_PLACEMENT_3D ( 'NONE', #147, #160, #148 ) ;
#69 = CIRCLE ( 'NONE', #38, 2.460629921259842590 ) ;
#70 = DATE_AND_TIME ( #61, #54 ) ;
#71 = APPROVAL_ROLE ( '' ) ;
#72 = ORIENTED_EDGE ( 'NONE', *, *, #178, .F. ) ;
#73 = CC_DESIGN_PERSON_AND_ORGANIZATION_ASSIGNMENT ( #46, #103, ( #53 ) ) ;
#74 = DIRECTION ( 'NONE',  ( -1.000000000000000000, 0.000000000000000000, 0.000000000000000000 ) ) ;
#75 = ADVANCED_FACE ( 'NONE', ( #102 ), #157, .F. ) ;
#76 = LINE ( 'NONE', #135, #172 ) ;
#77 = APPROVAL_STATUS ( 'not_yet_approved' ) ;
#78 = CARTESIAN_POINT ( 'NONE',  ( -2.460629921259842590, 0.000000000000000000, 0.2362204724409449064 ) ) ;
#79 = SHAPE_DEFINITION_REPRESENTATION ( #120, #142 ) ;
#80 = DATE_AND_TIME ( #19, #22 ) ;
#81 = ORGANIZATION ( 'UNSPECIFIED', 'UNSPECIFIED', '' ) ;
#82 = APPROVAL ( #44, 'UNSPECIFIED' ) ;
#83 = LOCAL_TIME ( 10, 38, 38.00000000000000000, #100 ) ;
#84 = PRODUCT_DEFINITION_FORMATION_WITH_SPECIFIED_SOURCE ( 'ANY', '', #32, .NOT_KNOWN. ) ;
#85 = ORIENTED_EDGE ( 'NONE', *, *, #170, .T. ) ;
#86 = DATE_TIME_ROLE ( 'creation_date' ) ;
#87 = FACE_OUTER_BOUND ( 'NONE', #24, .T. ) ;
#88 = AXIS2_PLACEMENT_3D ( 'NONE', #136, #105, #159 ) ;
#89 = PERSON_AND_ORGANIZATION ( #55, #81 ) ;
#90 = FACE_OUTER_BOUND ( 'NONE', #128, .T. ) ;
#91 = DATE_TIME_ROLE ( 'classification_date' ) ;
#92 = ADVANCED_FACE ( 'NONE', ( #87 ), #31, .T. ) ;
#93 = PERSON_AND_ORGANIZATION ( #55, #81 ) ;
#94 = APPROVAL_DATE_TIME ( #37, #7 ) ;
#95 = PRODUCT_RELATED_PRODUCT_CATEGORY ( 'detail', '', ( #32 ) ) ;
#96 = DATE_AND_TIME ( #16, #133 ) ;
#97 = CIRCLE ( 'NONE', #153, 2.460629921259842590 ) ;
#98 = APPROVAL_STATUS ( 'not_yet_approved' ) ;
#99 = DESIGN_CONTEXT ( 'detailed design', #40, 'design' ) ;
#100 = COORDINATED_UNIVERSAL_TIME_OFFSET ( 5, 0, .BEHIND. ) ;
#101 = CC_DESIGN_PERSON_AND_ORGANIZATION_ASSIGNMENT ( #93, #151, ( #84 ) ) ;
#102 = FACE_OUTER_BOUND ( 'NONE', #59, .T. ) ;
#103 = PERSON_AND_ORGANIZATION_ROLE ( 'creator' ) ;
#104 = VERTEX_POINT ( 'NONE', #14 ) ;
#105 = DIRECTION ( 'NONE',  ( 0.000000000000000000, 0.000000000000000000, 1.000000000000000000 ) ) ;
#106 = CARTESIAN_POINT ( 'NONE',  ( 0.000000000000000000, 0.000000000000000000, 0.000000000000000000 ) ) ;
#107 = CARTESIAN_POINT ( 'NONE',  ( 0.000000000000000000, 0.000000000000000000, 0.2362204724409449064 ) ) ;
#108 = FACE_OUTER_BOUND ( 'NONE', #26, .T. ) ;
#109 = APPROVAL_PERSON_ORGANIZATION ( #144, #7, #71 ) ;
#110 = CARTESIAN_POINT ( 'NONE',  ( 0.000000000000000000, 0.000000000000000000, 0.2362204724409449064 ) ) ;
#111 = CC_DESIGN_DATE_AND_TIME_ASSIGNMENT ( #27, #86, ( #53 ) ) ;
#112 = PERSON_AND_ORGANIZATION_ROLE ( 'design_supplier' ) ;
#113 = EDGE_CURVE ( 'NONE', #47, #104, #76, .T. ) ;
#114 = VECTOR ( 'NONE', #173, 39.37007874015748143 ) ;
#115 = APPLICATION_PROTOCOL_DEFINITION ( 'international standard', 'config_control_design', 1994, #40 ) ;
#116 = CIRCLE ( 'NONE', #88, 2.460629921259842590 ) ;
#117 = CARTESIAN_POINT ( 'NONE',  ( 0.000000000000000000, 0.000000000000000000, 0.2362204724409449064 ) ) ;
#118 = COORDINATED_UNIVERSAL_TIME_OFFSET ( 5, 0, .BEHIND. ) ;
#119 = CARTESIAN_POINT ( 'NONE',  ( 2.460629921259842590, 3.013402556957070180E-16, 0.2362204724409449064 ) ) ;
#120 = PRODUCT_DEFINITION_SHAPE ( 'NONE', 'NONE',  #53 ) ;
#121 = PERSON_AND_ORGANIZATION_ROLE ( 'design_owner' ) ;
#122 = ORIENTED_EDGE ( 'NONE', *, *, #139, .T. ) ;
#123 = ORIENTED_EDGE ( 'NONE', *, *, #113, .F. ) ;
#124 = LINE ( 'NONE', #78, #114 ) ;
#125 = CC_DESIGN_APPROVAL ( #7, ( #84 ) ) ;
#126 = APPROVAL ( #77, 'UNSPECIFIED' ) ;
#127 = CC_DESIGN_PERSON_AND_ORGANIZATION_ASSIGNMENT ( #58, #121, ( #32 ) ) ;
#128 = EDGE_LOOP ( 'NONE', ( #123, #2, #34, #122 ) ) ;
#129 = DIRECTION ( 'NONE',  ( 1.000000000000000000, 0.000000000000000000, 0.000000000000000000 ) ) ;
#130 = AXIS2_PLACEMENT_3D ( 'NONE', #107, #33, #74 ) ;
#131 = DIRECTION ( 'NONE',  ( 0.000000000000000000, 0.000000000000000000, 1.000000000000000000 ) ) ;
#132 = ORIENTED_EDGE ( 'NONE', *, *, #155, .F. ) ;
#133 = LOCAL_TIME ( 10, 38, 38.00000000000000000, #177 ) ;
#134 = ORIENTED_EDGE ( 'NONE', *, *, #178, .T. ) ;
#135 = CARTESIAN_POINT ( 'NONE',  ( 2.460629921259842590, 3.013402556957070180E-16, 0.2362204724409449064 ) ) ;
#136 = CARTESIAN_POINT ( 'NONE',  ( 0.000000000000000000, 0.000000000000000000, 0.2362204724409449064 ) ) ;
#137 = CC_DESIGN_APPROVAL ( #82, ( #53 ) ) ;
#138 = CIRCLE ( 'NONE', #35, 2.460629921259842590 ) ;
#139 = EDGE_CURVE ( 'NONE', #49, #104, #69, .T. ) ;
#140 = CARTESIAN_POINT ( 'NONE',  ( 0.000000000000000000, 0.000000000000000000, 0.000000000000000000 ) ) ;
#141 = AXIS2_PLACEMENT_3D ( 'NONE', #140, #165, #129 ) ;
#142 = ADVANCED_BREP_SHAPE_REPRESENTATION ( 'Web Model 17562_22071', ( #176, #141 ), #11 ) ;
#143 = APPLICATION_PROTOCOL_DEFINITION ( 'international standard', 'config_control_design', 1994, #30 ) ;
#144 = PERSON_AND_ORGANIZATION ( #55, #81 ) ;
#145 = APPROVAL_PERSON_ORGANIZATION ( #150, #126, #56 ) ;
#146 =( LENGTH_UNIT ( ) NAMED_UNIT ( * ) SI_UNIT ( $, .METRE. ) );
#147 = CARTESIAN_POINT ( 'NONE',  ( 0.000000000000000000, 0.000000000000000000, 0.2362204724409449064 ) ) ;
#148 = DIRECTION ( 'NONE',  ( -1.000000000000000000, 0.000000000000000000, 0.000000000000000000 ) ) ;
#149 = CARTESIAN_POINT ( 'NONE',  ( 0.000000000000000000, 0.000000000000000000, 0.000000000000000000 ) ) ;
#150 = PERSON_AND_ORGANIZATION ( #55, #81 ) ;
#151 = PERSON_AND_ORGANIZATION_ROLE ( 'creator' ) ;
#152 = DIRECTION ( 'NONE',  ( 0.000000000000000000, 0.000000000000000000, 1.000000000000000000 ) ) ;
#153 = AXIS2_PLACEMENT_3D ( 'NONE', #106, #131, #51 ) ;
#154 = DIRECTION ( 'NONE',  ( 1.000000000000000000, 0.000000000000000000, -0.000000000000000000 ) ) ;
#155 = EDGE_CURVE ( 'NONE', #60, #49, #124, .T. ) ;
#156 = CARTESIAN_POINT ( 'NONE',  ( 0.000000000000000000, 0.000000000000000000, 0.000000000000000000 ) ) ;
#157 = PLANE ( 'NONE',  #6 ) ;
#158 = CC_DESIGN_PERSON_AND_ORGANIZATION_ASSIGNMENT ( #89, #112, ( #84 ) ) ;
#159 = DIRECTION ( 'NONE',  ( 1.000000000000000000, 0.000000000000000000, 0.000000000000000000 ) ) ;
#160 = DIRECTION ( 'NONE',  ( -0.000000000000000000, -0.000000000000000000, -1.000000000000000000 ) ) ;
#161 = ADVANCED_FACE ( 'NONE', ( #90 ), #50, .T. ) ;
#162 = COORDINATED_UNIVERSAL_TIME_OFFSET ( 5, 0, .BEHIND. ) ;
#163 = DIMENSIONAL_EXPONENTS ( 1.000000000000000000, 0.000000000000000000, 0.000000000000000000, 0.000000000000000000, 0.000000000000000000, 0.000000000000000000, 0.000000000000000000 ) ;
#164 = COORDINATED_UNIVERSAL_TIME_OFFSET ( 5, 0, .BEHIND. ) ;
#165 = DIRECTION ( 'NONE',  ( 0.000000000000000000, 0.000000000000000000, 1.000000000000000000 ) ) ;
#166 = AXIS2_PLACEMENT_3D ( 'NONE', #117, #171, #154 ) ;
#167 = UNCERTAINTY_MEASURE_WITH_UNIT (LENGTH_MEASURE( 1.000000000000000082E-05 ), #28, 'distance_accuracy_value', 'NONE');
#168 = ORIENTED_EDGE ( 'NONE', *, *, #42, .T. ) ;
#169 = APPROVAL_DATE_TIME ( #70, #82 ) ;
#170 = EDGE_CURVE ( 'NONE', #60, #47, #116, .T. ) ;
#171 = DIRECTION ( 'NONE',  ( 0.000000000000000000, 0.000000000000000000, 1.000000000000000000 ) ) ;
#172 = VECTOR ( 'NONE', #15, 39.37007874015748143 ) ;
#173 = DIRECTION ( 'NONE',  ( -0.000000000000000000, -0.000000000000000000, -1.000000000000000000 ) ) ;
#174 = ORIENTED_EDGE ( 'NONE', *, *, #113, .T. ) ;
#175 = DIRECTION ( 'NONE',  ( 0.000000000000000000, 0.000000000000000000, 1.000000000000000000 ) ) ;
#176 = MANIFOLD_SOLID_BREP ( 'Boss-Extrude1', #8 ) ;
#177 = COORDINATED_UNIVERSAL_TIME_OFFSET ( 5, 0, .BEHIND. ) ;
#178 = EDGE_CURVE ( 'NONE', #47, #60, #138, .T. ) ;
ENDSEC;
END-ISO-10303-21;
