ISO-10303-21;
HEADER;
FILE_DESCRIPTION (( 'STEP AP203' ),
    '1' );
FILE_NAME ('Web Model ZnSe Unctd_39393.step',
    '2018-09-27T18:10:48',
    ( '' ),
    ( '' ),
    'SwSTEP 2.0',
    'SolidWorks 2016',
    '' );
FILE_SCHEMA (( 'CONFIG_CONTROL_DESIGN' ));
ENDSEC;

DATA;
#1 = APPROVAL_PERSON_ORGANIZATION ( #148, #131, #169 ) ;
#2 = CALENDAR_DATE ( 2018, 27, 9 ) ;
#3 = DIRECTION ( 'NONE',  ( 0.0000000000000000000, 0.0000000000000000000, 1.000000000000000000 ) ) ;
#4 = CALENDAR_DATE ( 2018, 27, 9 ) ;
#5 = AXIS2_PLACEMENT_3D ( 'NONE', #102, #166, #138 ) ;
#6 = ORIENTED_EDGE ( 'NONE', *, *, #79, .T. ) ;
#7 = PERSON_AND_ORGANIZATION_ROLE ( 'creator' ) ;
#8 = CARTESIAN_POINT ( 'NONE',  ( 0.0000000000000000000, 0.0000000000000000000, 0.0000000000000000000 ) ) ;
#9 = DIRECTION ( 'NONE',  ( 0.0000000000000000000, 0.0000000000000000000, 1.000000000000000000 ) ) ;
#10 = AXIS2_PLACEMENT_3D ( 'NONE', #83, #85, #101 ) ;
#11 = DIRECTION ( 'NONE',  ( -0.0000000000000000000, -0.0000000000000000000, -1.000000000000000000 ) ) ;
#12 = LINE ( 'NONE', #70, #16 ) ;
#13 = VERTEX_POINT ( 'NONE', #141 ) ;
#14 = AXIS2_PLACEMENT_3D ( 'NONE', #165, #114, #57 ) ;
#15 = PERSON_AND_ORGANIZATION ( #134, #64 ) ;
#16 = VECTOR ( 'NONE', #86, 1000.000000000000000 ) ;
#17 = ORIENTED_EDGE ( 'NONE', *, *, #91, .T. ) ;
#18 = CARTESIAN_POINT ( 'NONE',  ( 0.0000000000000000000, 0.0000000000000000000, -2.500000000000000000 ) ) ;
#19 = PERSON_AND_ORGANIZATION_ROLE ( 'design_supplier' ) ;
#20 =( NAMED_UNIT ( * ) PLANE_ANGLE_UNIT ( ) SI_UNIT ( $, .RADIAN. ) );
#21 = EDGE_LOOP ( 'NONE', ( #122, #17 ) ) ;
#22 = DIRECTION ( 'NONE',  ( 1.000000000000000000, 0.0000000000000000000, 0.0000000000000000000 ) ) ;
#23 = APPROVAL ( #87, 'UNSPECIFIED' ) ;
#24 =( NAMED_UNIT ( * ) SI_UNIT ( $, .STERADIAN. ) SOLID_ANGLE_UNIT ( ) );
#25 = COORDINATED_UNIVERSAL_TIME_OFFSET ( 5, 0, .BEHIND. ) ;
#26 = FACE_OUTER_BOUND ( 'NONE', #75, .T. ) ;
#27 = APPROVAL_DATE_TIME ( #132, #49 ) ;
#28 = CIRCLE ( 'NONE', #168, 12.50000000000000000 ) ;
#29 = PLANE ( 'NONE',  #108 ) ;
#30 = CARTESIAN_POINT ( 'NONE',  ( 0.0000000000000000000, 0.0000000000000000000, 2.500000000000000000 ) ) ;
#31 = CARTESIAN_POINT ( 'NONE',  ( -12.50000000000000000, 0.0000000000000000000, 2.500000000000000000 ) ) ;
#32 = SHAPE_DEFINITION_REPRESENTATION ( #40, #130 ) ;
#33 = CARTESIAN_POINT ( 'NONE',  ( 0.0000000000000000000, 0.0000000000000000000, -2.500000000000000000 ) ) ;
#34 = CC_DESIGN_DATE_AND_TIME_ASSIGNMENT ( #142, #88, ( #76 ) ) ;
#35 = PERSON_AND_ORGANIZATION_ROLE ( 'design_owner' ) ;
#36 = LOCAL_TIME ( 14, 10, 48.00000000000000000, #25 ) ;
#37 = LOCAL_TIME ( 14, 10, 48.00000000000000000, #53 ) ;
#38 = ORIENTED_EDGE ( 'NONE', *, *, #135, .F. ) ;
#39 = CC_DESIGN_APPROVAL ( #23, ( #76 ) ) ;
#40 = PRODUCT_DEFINITION_SHAPE ( 'NONE', 'NONE',  #76 ) ;
#41 = ADVANCED_FACE ( 'NONE', ( #146 ), #69, .F. ) ;
#42 = PERSON_AND_ORGANIZATION ( #134, #64 ) ;
#43 = ORIENTED_EDGE ( 'NONE', *, *, #91, .F. ) ;
#44 = CC_DESIGN_PERSON_AND_ORGANIZATION_ASSIGNMENT ( #15, #144, ( #147 ) ) ;
#45 = EDGE_CURVE ( 'NONE', #46, #13, #112, .T. ) ;
#46 = VERTEX_POINT ( 'NONE', #167 ) ;
#47 = DIRECTION ( 'NONE',  ( -0.0000000000000000000, -0.0000000000000000000, -1.000000000000000000 ) ) ;
#48 = CIRCLE ( 'NONE', #14, 12.50000000000000000 ) ;
#49 = APPROVAL ( #62, 'UNSPECIFIED' ) ;
#50 = UNCERTAINTY_MEASURE_WITH_UNIT (LENGTH_MEASURE( 1.000000000000000100E-005 ), #127, 'distance_accuracy_value', 'NONE');
#51 = DESIGN_CONTEXT ( 'detailed design', #128, 'design' ) ;
#52 = VECTOR ( 'NONE', #47, 1000.000000000000000 ) ;
#53 = COORDINATED_UNIVERSAL_TIME_OFFSET ( 5, 0, .BEHIND. ) ;
#54 = ORIENTED_EDGE ( 'NONE', *, *, #45, .F. ) ;
#55 = DIRECTION ( 'NONE',  ( 1.000000000000000000, 0.0000000000000000000, 0.0000000000000000000 ) ) ;
#56 = CC_DESIGN_DATE_AND_TIME_ASSIGNMENT ( #97, #116, ( #147 ) ) ;
#57 = DIRECTION ( 'NONE',  ( 1.000000000000000000, 0.0000000000000000000, 0.0000000000000000000 ) ) ;
#58 = CALENDAR_DATE ( 2018, 27, 9 ) ;
#59 = DATE_AND_TIME ( #150, #81 ) ;
#60 = APPROVAL_DATE_TIME ( #59, #23 ) ;
#61 = CARTESIAN_POINT ( 'NONE',  ( 12.50000000000000000, 1.530808498934191500E-015, 2.500000000000000000 ) ) ;
#62 = APPROVAL_STATUS ( 'not_yet_approved' ) ;
#63 = APPROVAL_DATE_TIME ( #109, #131 ) ;
#64 = ORGANIZATION ( 'UNSPECIFIED', 'UNSPECIFIED', '' ) ;
#65 = ADVANCED_FACE ( 'NONE', ( #89 ), #29, .T. ) ;
#66 = COORDINATED_UNIVERSAL_TIME_OFFSET ( 5, 0, .BEHIND. ) ;
#67 = AXIS2_PLACEMENT_3D ( 'NONE', #72, #123, #158 ) ;
#68 = EDGE_LOOP ( 'NONE', ( #126, #121, #120, #174 ) ) ;
#69 = PLANE ( 'NONE',  #10 ) ;
#70 = CARTESIAN_POINT ( 'NONE',  ( 12.50000000000000000, 1.530808498934191500E-015, 2.500000000000000000 ) ) ;
#71 = COORDINATED_UNIVERSAL_TIME_OFFSET ( 5, 0, .BEHIND. ) ;
#72 = CARTESIAN_POINT ( 'NONE',  ( 0.0000000000000000000, 0.0000000000000000000, 2.500000000000000000 ) ) ;
#73 = LOCAL_TIME ( 14, 10, 48.00000000000000000, #107 ) ;
#74 = APPROVAL_ROLE ( '' ) ;
#75 = EDGE_LOOP ( 'NONE', ( #43, #6, #94, #38 ) ) ;
#76 = PRODUCT_DEFINITION ( 'UNKNOWN', '', #99, #51 ) ;
#77 = PERSON_AND_ORGANIZATION ( #134, #64 ) ;
#78 = CC_DESIGN_PERSON_AND_ORGANIZATION_ASSIGNMENT ( #115, #7, ( #76 ) ) ;
#79 = EDGE_CURVE ( 'NONE', #163, #46, #12, .T. ) ;
#80 = MANIFOLD_SOLID_BREP ( 'Boss-Extrude1', #157 ) ;
#81 = LOCAL_TIME ( 14, 10, 48.00000000000000000, #71 ) ;
#82 = ADVANCED_FACE ( 'NONE', ( #159 ), #119, .T. ) ;
#83 = CARTESIAN_POINT ( 'NONE',  ( 0.0000000000000000000, 0.0000000000000000000, -2.500000000000000000 ) ) ;
#84 = CC_DESIGN_APPROVAL ( #49, ( #99 ) ) ;
#85 = DIRECTION ( 'NONE',  ( 0.0000000000000000000, 0.0000000000000000000, 1.000000000000000000 ) ) ;
#86 = DIRECTION ( 'NONE',  ( -0.0000000000000000000, -0.0000000000000000000, -1.000000000000000000 ) ) ;
#87 = APPROVAL_STATUS ( 'not_yet_approved' ) ;
#88 = DATE_TIME_ROLE ( 'creation_date' ) ;
#89 = FACE_OUTER_BOUND ( 'NONE', #21, .T. ) ;
#90 = SECURITY_CLASSIFICATION_LEVEL ( 'unclassified' ) ;
#91 = EDGE_CURVE ( 'NONE', #163, #133, #48, .T. ) ;
#92 = CIRCLE ( 'NONE', #67, 12.50000000000000000 ) ;
#93 = PERSON_AND_ORGANIZATION ( #134, #64 ) ;
#94 = ORIENTED_EDGE ( 'NONE', *, *, #45, .T. ) ;
#95 = EDGE_CURVE ( 'NONE', #13, #46, #28, .T. ) ;
#96 = PRODUCT_RELATED_PRODUCT_CATEGORY ( 'detail', '', ( #151 ) ) ;
#97 = DATE_AND_TIME ( #4, #36 ) ;
#98 = APPROVAL_PERSON_ORGANIZATION ( #77, #23, #145 ) ;
#99 = PRODUCT_DEFINITION_FORMATION_WITH_SPECIFIED_SOURCE ( 'ANY', '', #151, .NOT_KNOWN. ) ;
#100 = CARTESIAN_POINT ( 'NONE',  ( -12.50000000000000000, 0.0000000000000000000, 2.500000000000000000 ) ) ;
#101 = DIRECTION ( 'NONE',  ( 1.000000000000000000, 0.0000000000000000000, -0.0000000000000000000 ) ) ;
#102 = CARTESIAN_POINT ( 'NONE',  ( 0.0000000000000000000, 0.0000000000000000000, 2.500000000000000000 ) ) ;
#103 = DIRECTION ( 'NONE',  ( 1.000000000000000000, 0.0000000000000000000, 0.0000000000000000000 ) ) ;
#104 = DIRECTION ( 'NONE',  ( 0.0000000000000000000, 0.0000000000000000000, 1.000000000000000000 ) ) ;
#105 = AXIS2_PLACEMENT_3D ( 'NONE', #18, #140, #55 ) ;
#106 = MECHANICAL_CONTEXT ( 'NONE', #170, 'mechanical' ) ;
#107 = COORDINATED_UNIVERSAL_TIME_OFFSET ( 5, 0, .BEHIND. ) ;
#108 = AXIS2_PLACEMENT_3D ( 'NONE', #154, #3, #155 ) ;
#109 = DATE_AND_TIME ( #58, #73 ) ;
#110 = PERSON_AND_ORGANIZATION ( #134, #64 ) ;
#111 = CC_DESIGN_SECURITY_CLASSIFICATION ( #147, ( #99 ) ) ;
#112 = CIRCLE ( 'NONE', #105, 12.50000000000000000 ) ;
#113 = EDGE_CURVE ( 'NONE', #133, #163, #92, .T. ) ;
#114 = DIRECTION ( 'NONE',  ( 0.0000000000000000000, 0.0000000000000000000, 1.000000000000000000 ) ) ;
#115 = PERSON_AND_ORGANIZATION ( #134, #64 ) ;
#116 = DATE_TIME_ROLE ( 'classification_date' ) ;
#117 = APPROVAL_STATUS ( 'not_yet_approved' ) ;
#118 = AXIS2_PLACEMENT_3D ( 'NONE', #30, #11, #143 ) ;
#119 = CYLINDRICAL_SURFACE ( 'NONE', #5, 12.50000000000000000 ) ;
#120 = ORIENTED_EDGE ( 'NONE', *, *, #135, .T. ) ;
#121 = ORIENTED_EDGE ( 'NONE', *, *, #113, .F. ) ;
#122 = ORIENTED_EDGE ( 'NONE', *, *, #113, .T. ) ;
#123 = DIRECTION ( 'NONE',  ( 0.0000000000000000000, 0.0000000000000000000, 1.000000000000000000 ) ) ;
#124 = APPLICATION_PROTOCOL_DEFINITION ( 'international standard', 'config_control_design', 1994, #170 ) ;
#125 = PERSON_AND_ORGANIZATION ( #134, #64 ) ;
#126 = ORIENTED_EDGE ( 'NONE', *, *, #79, .F. ) ;
#127 =( LENGTH_UNIT ( ) NAMED_UNIT ( * ) SI_UNIT ( .MILLI., .METRE. ) );
#128 = APPLICATION_CONTEXT ( 'configuration controlled 3d designs of mechanical parts and assemblies' ) ;
#129 = CC_DESIGN_PERSON_AND_ORGANIZATION_ASSIGNMENT ( #125, #173, ( #99 ) ) ;
#130 = ADVANCED_BREP_SHAPE_REPRESENTATION ( 'Web Model ZnSe Unctd_39393', ( #80, #162 ), #160 ) ;
#131 = APPROVAL ( #117, 'UNSPECIFIED' ) ;
#132 = DATE_AND_TIME ( #171, #175 ) ;
#133 = VERTEX_POINT ( 'NONE', #31 ) ;
#134 = PERSON ( 'UNSPECIFIED', 'UNSPECIFIED', 'UNSPECIFIED', ('UNSPECIFIED'), ('UNSPECIFIED'), ('UNSPECIFIED') ) ;
#135 = EDGE_CURVE ( 'NONE', #133, #13, #153, .T. ) ;
#136 = CYLINDRICAL_SURFACE ( 'NONE', #118, 12.50000000000000000 ) ;
#137 = CC_DESIGN_APPROVAL ( #131, ( #147 ) ) ;
#138 = DIRECTION ( 'NONE',  ( -1.000000000000000000, 0.0000000000000000000, 0.0000000000000000000 ) ) ;
#139 = CC_DESIGN_PERSON_AND_ORGANIZATION_ASSIGNMENT ( #42, #35, ( #151 ) ) ;
#140 = DIRECTION ( 'NONE',  ( 0.0000000000000000000, 0.0000000000000000000, 1.000000000000000000 ) ) ;
#141 = CARTESIAN_POINT ( 'NONE',  ( -12.50000000000000000, 0.0000000000000000000, -2.500000000000000000 ) ) ;
#142 = DATE_AND_TIME ( #2, #37 ) ;
#143 = DIRECTION ( 'NONE',  ( -1.000000000000000000, 0.0000000000000000000, 0.0000000000000000000 ) ) ;
#144 = PERSON_AND_ORGANIZATION_ROLE ( 'classification_officer' ) ;
#145 = APPROVAL_ROLE ( '' ) ;
#146 = FACE_OUTER_BOUND ( 'NONE', #156, .T. ) ;
#147 = SECURITY_CLASSIFICATION ( '', '', #90 ) ;
#148 = PERSON_AND_ORGANIZATION ( #134, #64 ) ;
#149 = CC_DESIGN_PERSON_AND_ORGANIZATION_ASSIGNMENT ( #93, #19, ( #99 ) ) ;
#150 = CALENDAR_DATE ( 2018, 27, 9 ) ;
#151 = PRODUCT ( 'Web Model ZnSe Unctd_39393', 'Web Model ZnSe Unctd_39393', '', ( #106 ) ) ;
#152 = ADVANCED_FACE ( 'NONE', ( #26 ), #136, .T. ) ;
#153 = LINE ( 'NONE', #100, #52 ) ;
#154 = CARTESIAN_POINT ( 'NONE',  ( 0.0000000000000000000, 0.0000000000000000000, 2.500000000000000000 ) ) ;
#155 = DIRECTION ( 'NONE',  ( 1.000000000000000000, 0.0000000000000000000, -0.0000000000000000000 ) ) ;
#156 = EDGE_LOOP ( 'NONE', ( #161, #54 ) ) ;
#157 = CLOSED_SHELL ( 'NONE', ( #152, #82, #65, #41 ) ) ;
#158 = DIRECTION ( 'NONE',  ( 1.000000000000000000, 0.0000000000000000000, 0.0000000000000000000 ) ) ;
#159 = FACE_OUTER_BOUND ( 'NONE', #68, .T. ) ;
#160 =( GEOMETRIC_REPRESENTATION_CONTEXT ( 3 ) GLOBAL_UNCERTAINTY_ASSIGNED_CONTEXT ( ( #50 ) ) GLOBAL_UNIT_ASSIGNED_CONTEXT ( ( #127, #20, #24 ) ) REPRESENTATION_CONTEXT ( 'NONE', 'WORKASPACE' ) );
#161 = ORIENTED_EDGE ( 'NONE', *, *, #95, .F. ) ;
#162 = AXIS2_PLACEMENT_3D ( 'NONE', #8, #104, #22 ) ;
#163 = VERTEX_POINT ( 'NONE', #61 ) ;
#164 = APPROVAL_PERSON_ORGANIZATION ( #110, #49, #74 ) ;
#165 = CARTESIAN_POINT ( 'NONE',  ( 0.0000000000000000000, 0.0000000000000000000, 2.500000000000000000 ) ) ;
#166 = DIRECTION ( 'NONE',  ( -0.0000000000000000000, -0.0000000000000000000, -1.000000000000000000 ) ) ;
#167 = CARTESIAN_POINT ( 'NONE',  ( 12.50000000000000000, 1.530808498934191500E-015, -2.500000000000000000 ) ) ;
#168 = AXIS2_PLACEMENT_3D ( 'NONE', #33, #9, #103 ) ;
#169 = APPROVAL_ROLE ( '' ) ;
#170 = APPLICATION_CONTEXT ( 'configuration controlled 3d designs of mechanical parts and assemblies' ) ;
#171 = CALENDAR_DATE ( 2018, 27, 9 ) ;
#172 = APPLICATION_PROTOCOL_DEFINITION ( 'international standard', 'config_control_design', 1994, #128 ) ;
#173 = PERSON_AND_ORGANIZATION_ROLE ( 'creator' ) ;
#174 = ORIENTED_EDGE ( 'NONE', *, *, #95, .T. ) ;
#175 = LOCAL_TIME ( 14, 10, 48.00000000000000000, #66 ) ;
ENDSEC;
END-ISO-10303-21;
