ISO-10303-21;
HEADER;
FILE_DESCRIPTION (( 'STEP AP203' ),
    '1' );
FILE_NAME ('Web Model 12455_12455.step',
    '2019-11-01T14:41:06',
    ( '' ),
    ( '' ),
    'SwSTEP 2.0',
    'SolidWorks 2018',
    '' );
FILE_SCHEMA (( 'CONFIG_CONTROL_DESIGN' ));
ENDSEC;

DATA;
#1 = APPROVAL_ROLE ( '' ) ;
#2 = PERSON_AND_ORGANIZATION ( #28, #136 ) ;
#3 =( LENGTH_UNIT ( ) NAMED_UNIT ( * ) SI_UNIT ( .MILLI., .METRE. ) );
#4 = DIRECTION ( 'NONE',  ( 0.0000000000000000000, 0.0000000000000000000, -1.000000000000000000 ) ) ;
#5 = PERSON_AND_ORGANIZATION ( #28, #136 ) ;
#6 = CYLINDRICAL_SURFACE ( 'NONE', #37, 25.00000000000000000 ) ;
#7 = SECURITY_CLASSIFICATION_LEVEL ( 'unclassified' ) ;
#8 = EDGE_CURVE ( 'NONE', #87, #13, #118, .T. ) ;
#9 = ORIENTED_EDGE ( 'NONE', *, *, #67, .F. ) ;
#10 = CARTESIAN_POINT ( 'NONE',  ( 0.8000000000000000444, 0.0000000000000000000, 0.0000000000000000000 ) ) ;
#11 = CARTESIAN_POINT ( 'NONE',  ( 0.8000000000000000444, 0.0000000000000000000, 25.00000000000000000 ) ) ;
#12 = CC_DESIGN_PERSON_AND_ORGANIZATION_ASSIGNMENT ( #158, #23, ( #14 ) ) ;
#13 = VERTEX_POINT ( 'NONE', #43 ) ;
#14 = PRODUCT_DEFINITION ( 'UNKNOWN', '', #173, #78 ) ;
#15 = DIRECTION ( 'NONE',  ( 0.0000000000000000000, 0.0000000000000000000, -1.000000000000000000 ) ) ;
#16 = DATE_AND_TIME ( #56, #137 ) ;
#17 = COORDINATED_UNIVERSAL_TIME_OFFSET ( 5, 0, .BEHIND. ) ;
#18 = DIRECTION ( 'NONE',  ( 0.0000000000000000000, 0.0000000000000000000, 1.000000000000000000 ) ) ;
#19 = SECURITY_CLASSIFICATION ( '', '', #7 ) ;
#20 = PERSON_AND_ORGANIZATION_ROLE ( 'design_supplier' ) ;
#21 = APPROVAL ( #39, 'UNSPECIFIED' ) ;
#22 = EDGE_LOOP ( 'NONE', ( #100, #9, #113, #51 ) ) ;
#23 = PERSON_AND_ORGANIZATION_ROLE ( 'creator' ) ;
#24 = PERSON_AND_ORGANIZATION ( #28, #136 ) ;
#25 = CC_DESIGN_DATE_AND_TIME_ASSIGNMENT ( #16, #170, ( #14 ) ) ;
#26 =( NAMED_UNIT ( * ) SI_UNIT ( $, .STERADIAN. ) SOLID_ANGLE_UNIT ( ) );
#27 = AXIS2_PLACEMENT_3D ( 'NONE', #71, #59, #167 ) ;
#28 = PERSON ( 'UNSPECIFIED', 'UNSPECIFIED', 'UNSPECIFIED', ('UNSPECIFIED'), ('UNSPECIFIED'), ('UNSPECIFIED') ) ;
#29 = PRODUCT_RELATED_PRODUCT_CATEGORY ( 'detail', '', ( #53 ) ) ;
#30 = ORIENTED_EDGE ( 'NONE', *, *, #163, .T. ) ;
#31 = PLANE ( 'NONE',  #164 ) ;
#32 = FACE_OUTER_BOUND ( 'NONE', #115, .T. ) ;
#33 = EDGE_LOOP ( 'NONE', ( #75, #30 ) ) ;
#34 = CARTESIAN_POINT ( 'NONE',  ( -0.8000000000000000444, 0.0000000000000000000, 25.00000000000000000 ) ) ;
#35 = LOCAL_TIME ( 10, 41, 6.000000000000000000, #17 ) ;
#36 = CARTESIAN_POINT ( 'NONE',  ( -0.8000000000000000444, 0.0000000000000000000, 0.0000000000000000000 ) ) ;
#37 = AXIS2_PLACEMENT_3D ( 'NONE', #105, #117, #18 ) ;
#38 = FACE_OUTER_BOUND ( 'NONE', #22, .T. ) ;
#39 = APPROVAL_STATUS ( 'not_yet_approved' ) ;
#40 = VERTEX_POINT ( 'NONE', #11 ) ;
#41 = ADVANCED_FACE ( 'NONE', ( #152 ), #91, .T. ) ;
#42 = CC_DESIGN_APPROVAL ( #21, ( #14 ) ) ;
#43 = CARTESIAN_POINT ( 'NONE',  ( -0.8000000000000000444, 3.061616997868383043E-15, -25.00000000000000000 ) ) ;
#44 = APPROVAL_DATE_TIME ( #106, #58 ) ;
#45 = CARTESIAN_POINT ( 'NONE',  ( 0.8000000000000000444, 0.0000000000000000000, 25.00000000000000000 ) ) ;
#46 = DIRECTION ( 'NONE',  ( -1.000000000000000000, -0.0000000000000000000, -0.0000000000000000000 ) ) ;
#47 = COORDINATED_UNIVERSAL_TIME_OFFSET ( 5, 0, .BEHIND. ) ;
#48 = DIRECTION ( 'NONE',  ( 1.000000000000000000, 0.0000000000000000000, 0.0000000000000000000 ) ) ;
#49 = ORIENTED_EDGE ( 'NONE', *, *, #163, .F. ) ;
#50 = COORDINATED_UNIVERSAL_TIME_OFFSET ( 5, 0, .BEHIND. ) ;
#51 = ORIENTED_EDGE ( 'NONE', *, *, #92, .T. ) ;
#52 = ADVANCED_BREP_SHAPE_REPRESENTATION ( 'Web Model 12455_12455', ( #88, #102 ), #84 ) ;
#53 = PRODUCT ( 'Web Model 12455_12455', 'Web Model 12455_12455', '', ( #72 ) ) ;
#54 = CALENDAR_DATE ( 2019, 1, 11 ) ;
#55 = AXIS2_PLACEMENT_3D ( 'NONE', #36, #119, #153 ) ;
#56 = CALENDAR_DATE ( 2019, 1, 11 ) ;
#57 = PERSON_AND_ORGANIZATION ( #28, #136 ) ;
#58 = APPROVAL ( #123, 'UNSPECIFIED' ) ;
#59 = DIRECTION ( 'NONE',  ( 1.000000000000000000, 0.0000000000000000000, 0.0000000000000000000 ) ) ;
#60 = CIRCLE ( 'NONE', #55, 25.00000000000000000 ) ;
#61 = CARTESIAN_POINT ( 'NONE',  ( -0.8000000000000000444, 0.0000000000000000000, 0.0000000000000000000 ) ) ;
#62 = DATE_AND_TIME ( #142, #120 ) ;
#63 = APPROVAL_DATE_TIME ( #128, #21 ) ;
#64 = APPLICATION_CONTEXT ( 'configuration controlled 3d designs of mechanical parts and assemblies' ) ;
#65 = VERTEX_POINT ( 'NONE', #34 ) ;
#66 = PERSON_AND_ORGANIZATION_ROLE ( 'classification_officer' ) ;
#67 = EDGE_CURVE ( 'NONE', #40, #87, #125, .T. ) ;
#68 = SHAPE_DEFINITION_REPRESENTATION ( #116, #52 ) ;
#69 = CC_DESIGN_APPROVAL ( #58, ( #173 ) ) ;
#70 = CARTESIAN_POINT ( 'NONE',  ( 0.8000000000000000444, 0.0000000000000000000, 0.0000000000000000000 ) ) ;
#71 = CARTESIAN_POINT ( 'NONE',  ( 0.8000000000000000444, 0.0000000000000000000, 0.0000000000000000000 ) ) ;
#72 = MECHANICAL_CONTEXT ( 'NONE', #64, 'mechanical' ) ;
#73 = CC_DESIGN_PERSON_AND_ORGANIZATION_ASSIGNMENT ( #141, #20, ( #173 ) ) ;
#74 = APPROVAL_DATE_TIME ( #145, #76 ) ;
#75 = ORIENTED_EDGE ( 'NONE', *, *, #67, .T. ) ;
#76 = APPROVAL ( #172, 'UNSPECIFIED' ) ;
#77 = UNCERTAINTY_MEASURE_WITH_UNIT (LENGTH_MEASURE( 1.000000000000000082E-05 ), #3, 'distance_accuracy_value', 'NONE');
#78 = DESIGN_CONTEXT ( 'detailed design', #157, 'design' ) ;
#79 = DIRECTION ( 'NONE',  ( -1.000000000000000000, -0.0000000000000000000, -0.0000000000000000000 ) ) ;
#80 = DIRECTION ( 'NONE',  ( 1.000000000000000000, 0.0000000000000000000, 0.0000000000000000000 ) ) ;
#81 = DIRECTION ( 'NONE',  ( 0.0000000000000000000, 0.0000000000000000000, -1.000000000000000000 ) ) ;
#82 = PERSON_AND_ORGANIZATION ( #28, #136 ) ;
#83 = DIRECTION ( 'NONE',  ( 0.0000000000000000000, 0.0000000000000000000, 1.000000000000000000 ) ) ;
#84 =( GEOMETRIC_REPRESENTATION_CONTEXT ( 3 ) GLOBAL_UNCERTAINTY_ASSIGNED_CONTEXT ( ( #77 ) ) GLOBAL_UNIT_ASSIGNED_CONTEXT ( ( #3, #121, #26 ) ) REPRESENTATION_CONTEXT ( 'NONE', 'WORKASPACE' ) );
#85 = APPROVAL_ROLE ( '' ) ;
#86 = CARTESIAN_POINT ( 'NONE',  ( 0.0000000000000000000, 0.0000000000000000000, 0.0000000000000000000 ) ) ;
#87 = VERTEX_POINT ( 'NONE', #103 ) ;
#88 = MANIFOLD_SOLID_BREP ( 'Boss-Extrude1', #143 ) ;
#89 = ADVANCED_FACE ( 'NONE', ( #32 ), #161, .T. ) ;
#90 = LOCAL_TIME ( 10, 41, 6.000000000000000000, #148 ) ;
#91 = PLANE ( 'NONE',  #156 ) ;
#92 = EDGE_CURVE ( 'NONE', #65, #13, #60, .T. ) ;
#93 = CARTESIAN_POINT ( 'NONE',  ( -0.8000000000000000444, 0.0000000000000000000, 0.0000000000000000000 ) ) ;
#94 = FACE_OUTER_BOUND ( 'NONE', #147, .T. ) ;
#95 = DIRECTION ( 'NONE',  ( 0.0000000000000000000, 0.0000000000000000000, 1.000000000000000000 ) ) ;
#96 = APPLICATION_PROTOCOL_DEFINITION ( 'international standard', 'config_control_design', 1994, #157 ) ;
#97 = PERSON_AND_ORGANIZATION_ROLE ( 'creator' ) ;
#98 = ADVANCED_FACE ( 'NONE', ( #94 ), #31, .F. ) ;
#99 = PERSON_AND_ORGANIZATION ( #28, #136 ) ;
#100 = ORIENTED_EDGE ( 'NONE', *, *, #8, .F. ) ;
#101 = COORDINATED_UNIVERSAL_TIME_OFFSET ( 5, 0, .BEHIND. ) ;
#102 = AXIS2_PLACEMENT_3D ( 'NONE', #86, #95, #139 ) ;
#103 = CARTESIAN_POINT ( 'NONE',  ( 0.8000000000000000444, 3.061616997868383043E-15, -25.00000000000000000 ) ) ;
#104 = ORIENTED_EDGE ( 'NONE', *, *, #8, .T. ) ;
#105 = CARTESIAN_POINT ( 'NONE',  ( 0.8000000000000000444, 0.0000000000000000000, 0.0000000000000000000 ) ) ;
#106 = DATE_AND_TIME ( #112, #154 ) ;
#107 = APPLICATION_PROTOCOL_DEFINITION ( 'international standard', 'config_control_design', 1994, #64 ) ;
#108 = CC_DESIGN_PERSON_AND_ORGANIZATION_ASSIGNMENT ( #2, #66, ( #19 ) ) ;
#109 = APPROVAL_PERSON_ORGANIZATION ( #57, #21, #85 ) ;
#110 = VECTOR ( 'NONE', #79, 1000.000000000000000 ) ;
#111 = ADVANCED_FACE ( 'NONE', ( #38 ), #6, .T. ) ;
#112 = CALENDAR_DATE ( 2019, 1, 11 ) ;
#113 = ORIENTED_EDGE ( 'NONE', *, *, #169, .T. ) ;
#114 = CIRCLE ( 'NONE', #132, 25.00000000000000000 ) ;
#115 = EDGE_LOOP ( 'NONE', ( #49, #104, #127, #146 ) ) ;
#116 = PRODUCT_DEFINITION_SHAPE ( 'NONE', 'NONE',  #14 ) ;
#117 = DIRECTION ( 'NONE',  ( -1.000000000000000000, -0.0000000000000000000, -0.0000000000000000000 ) ) ;
#118 = LINE ( 'NONE', #165, #110 ) ;
#119 = DIRECTION ( 'NONE',  ( 1.000000000000000000, 0.0000000000000000000, 0.0000000000000000000 ) ) ;
#120 = LOCAL_TIME ( 10, 41, 6.000000000000000000, #101 ) ;
#121 =( NAMED_UNIT ( * ) PLANE_ANGLE_UNIT ( ) SI_UNIT ( $, .RADIAN. ) );
#122 = CC_DESIGN_PERSON_AND_ORGANIZATION_ASSIGNMENT ( #5, #97, ( #173 ) ) ;
#123 = APPROVAL_STATUS ( 'not_yet_approved' ) ;
#124 = DIRECTION ( 'NONE',  ( 1.000000000000000000, 0.0000000000000000000, 0.0000000000000000000 ) ) ;
#125 = CIRCLE ( 'NONE', #27, 25.00000000000000000 ) ;
#126 = DATE_TIME_ROLE ( 'classification_date' ) ;
#127 = ORIENTED_EDGE ( 'NONE', *, *, #159, .T. ) ;
#128 = DATE_AND_TIME ( #54, #35 ) ;
#129 = AXIS2_PLACEMENT_3D ( 'NONE', #155, #48, #138 ) ;
#130 = DIRECTION ( 'NONE',  ( 1.000000000000000000, 0.0000000000000000000, 0.0000000000000000000 ) ) ;
#131 = CALENDAR_DATE ( 2019, 1, 11 ) ;
#132 = AXIS2_PLACEMENT_3D ( 'NONE', #61, #124, #4 ) ;
#133 = VECTOR ( 'NONE', #135, 1000.000000000000000 ) ;
#134 = CC_DESIGN_SECURITY_CLASSIFICATION ( #19, ( #173 ) ) ;
#135 = DIRECTION ( 'NONE',  ( -1.000000000000000000, -0.0000000000000000000, -0.0000000000000000000 ) ) ;
#136 = ORGANIZATION ( 'UNSPECIFIED', 'UNSPECIFIED', '' ) ;
#137 = LOCAL_TIME ( 10, 41, 6.000000000000000000, #50 ) ;
#138 = DIRECTION ( 'NONE',  ( 0.0000000000000000000, 0.0000000000000000000, -1.000000000000000000 ) ) ;
#139 = DIRECTION ( 'NONE',  ( 1.000000000000000000, 0.0000000000000000000, 0.0000000000000000000 ) ) ;
#140 = APPROVAL_ROLE ( '' ) ;
#141 = PERSON_AND_ORGANIZATION ( #28, #136 ) ;
#142 = CALENDAR_DATE ( 2019, 1, 11 ) ;
#143 = CLOSED_SHELL ( 'NONE', ( #89, #111, #41, #98 ) ) ;
#144 = CC_DESIGN_DATE_AND_TIME_ASSIGNMENT ( #62, #126, ( #19 ) ) ;
#145 = DATE_AND_TIME ( #131, #90 ) ;
#146 = ORIENTED_EDGE ( 'NONE', *, *, #169, .F. ) ;
#147 = EDGE_LOOP ( 'NONE', ( #171, #162 ) ) ;
#148 = COORDINATED_UNIVERSAL_TIME_OFFSET ( 5, 0, .BEHIND. ) ;
#149 = APPROVAL_PERSON_ORGANIZATION ( #82, #58, #1 ) ;
#150 = CC_DESIGN_APPROVAL ( #76, ( #19 ) ) ;
#151 = CIRCLE ( 'NONE', #129, 25.00000000000000000 ) ;
#152 = FACE_OUTER_BOUND ( 'NONE', #33, .T. ) ;
#153 = DIRECTION ( 'NONE',  ( 0.0000000000000000000, 0.0000000000000000000, -1.000000000000000000 ) ) ;
#154 = LOCAL_TIME ( 10, 41, 6.000000000000000000, #47 ) ;
#155 = CARTESIAN_POINT ( 'NONE',  ( 0.8000000000000000444, 0.0000000000000000000, 0.0000000000000000000 ) ) ;
#156 = AXIS2_PLACEMENT_3D ( 'NONE', #10, #130, #81 ) ;
#157 = APPLICATION_CONTEXT ( 'configuration controlled 3d designs of mechanical parts and assemblies' ) ;
#158 = PERSON_AND_ORGANIZATION ( #28, #136 ) ;
#159 = EDGE_CURVE ( 'NONE', #13, #65, #114, .T. ) ;
#160 = AXIS2_PLACEMENT_3D ( 'NONE', #70, #46, #83 ) ;
#161 = CYLINDRICAL_SURFACE ( 'NONE', #160, 25.00000000000000000 ) ;
#162 = ORIENTED_EDGE ( 'NONE', *, *, #159, .F. ) ;
#163 = EDGE_CURVE ( 'NONE', #87, #40, #151, .T. ) ;
#164 = AXIS2_PLACEMENT_3D ( 'NONE', #93, #80, #15 ) ;
#165 = CARTESIAN_POINT ( 'NONE',  ( 0.8000000000000000444, 3.061616997868383043E-15, -25.00000000000000000 ) ) ;
#166 = LINE ( 'NONE', #45, #133 ) ;
#167 = DIRECTION ( 'NONE',  ( 0.0000000000000000000, 0.0000000000000000000, -1.000000000000000000 ) ) ;
#168 = PERSON_AND_ORGANIZATION_ROLE ( 'design_owner' ) ;
#169 = EDGE_CURVE ( 'NONE', #40, #65, #166, .T. ) ;
#170 = DATE_TIME_ROLE ( 'creation_date' ) ;
#171 = ORIENTED_EDGE ( 'NONE', *, *, #92, .F. ) ;
#172 = APPROVAL_STATUS ( 'not_yet_approved' ) ;
#173 = PRODUCT_DEFINITION_FORMATION_WITH_SPECIFIED_SOURCE ( 'ANY', '', #53, .NOT_KNOWN. ) ;
#174 = APPROVAL_PERSON_ORGANIZATION ( #24, #76, #140 ) ;
#175 = CC_DESIGN_PERSON_AND_ORGANIZATION_ASSIGNMENT ( #99, #168, ( #53 ) ) ;
ENDSEC;
END-ISO-10303-21;
