ISO-10303-21;
HEADER;
FILE_DESCRIPTION (( 'STEP AP214' ),
    '1' );
FILE_NAME ('3456-E0W.STEP',
    '2009-12-21T16:59:44',
    ( ' ' ),
    ( ' ' ),
    'SwSTEP 2.0',
    'SolidWorks 2009',
    '' );
FILE_SCHEMA (( 'AUTOMOTIVE_DESIGN' ));
ENDSEC;

DATA;
#1 = ORIENTED_EDGE ( 'NONE', *, *, #7, .T. ) ;
#2 = VERTEX_POINT ( 'NONE', #47 ) ;
#3 = EDGE_CURVE ( 'NONE', #308, #2, #15, .T. ) ;
#4 = ADVANCED_FACE ( 'NONE', ( #40 ), #51, .T. ) ;
#5 = EDGE_LOOP ( 'NONE', ( #1, #302, #23, #29 ) ) ;
#6 = ORIENTED_EDGE ( 'NONE', *, *, #3, .F. ) ;
#7 = EDGE_CURVE ( 'NONE', #10, #301, #24, .T. ) ;
#8 = EDGE_CURVE ( 'NONE', #2, #10, #73, .T. ) ;
#9 = EDGE_LOOP ( 'NONE', ( #281, #282, #284, #285, #286, #287 ) ) ;
#10 = VERTEX_POINT ( 'NONE', #71 ) ;
#11 = ORIENTED_EDGE ( 'NONE', *, *, #8, .F. ) ;
#12 = ORIENTED_EDGE ( 'NONE', *, *, #7, .F. ) ;
#13 = ORIENTED_EDGE ( 'NONE', *, *, #17, .T. ) ;
#14 = ADVANCED_FACE ( 'NONE', ( #77 ), #119, .T. ) ;
#15 = LINE ( 'NONE', #57, #56 ) ;
#16 = FILL_AREA_STYLE_COLOUR ( '', #43 ) ;
#17 = EDGE_CURVE ( 'NONE', #10, #305, #82, .T. ) ;
#18 = DIRECTION ( 'NONE',  ( 1.000000000000000000, 0.0000000000000000000, 0.0000000000000000000 ) ) ;
#19 = DIRECTION ( 'NONE',  ( 1.000000000000000000, 0.0000000000000000000, 0.0000000000000000000 ) ) ;
#20 = DIRECTION ( 'NONE',  ( -0.0000000000000000000, -0.0000000000000000000, 1.000000000000000000 ) ) ;
#21 = CARTESIAN_POINT ( 'NONE',  ( 0.0000000000000000000, 0.0000000000000000000, 0.5974517512316677200 ) ) ;
#22 = AXIS2_PLACEMENT_3D ( 'NONE', #21, #20, #19 ) ;
#23 = ORIENTED_EDGE ( 'NONE', *, *, #53, .T. ) ;
#24 = CIRCLE ( 'NONE', #22, 12.70000000000000100 ) ;
#25 = DIRECTION ( 'NONE',  ( 0.0000000000000000000, 1.000000000000000000, 0.0000000000000000000 ) ) ;
#26 = DIRECTION ( 'NONE',  ( -1.000000000000000000, 0.0000000000000000000, 0.0000000000000000000 ) ) ;
#27 = CARTESIAN_POINT ( 'NONE',  ( 0.0000000000000000000, 0.0000000000000000000, -99.49002049180182900 ) ) ;
#28 = AXIS2_PLACEMENT_3D ( 'NONE', #27, #26, #25 ) ;
#29 = ORIENTED_EDGE ( 'NONE', *, *, #17, .F. ) ;
#30 =( GEOMETRIC_REPRESENTATION_CONTEXT ( 3 ) GLOBAL_UNCERTAINTY_ASSIGNED_CONTEXT ( ( #49 ) ) GLOBAL_UNIT_ASSIGNED_CONTEXT ( ( #46, #34, #50 ) ) REPRESENTATION_CONTEXT ( 'NONE', 'WORKASPACE' ) );
#31 = STYLED_ITEM ( 'NONE', ( #32 ), #4 ) ;
#32 = PRESENTATION_STYLE_ASSIGNMENT (( #33 ) ) ;
#33 = SURFACE_STYLE_USAGE ( .BOTH. , #36 ) ;
#34 =( NAMED_UNIT ( * ) PLANE_ANGLE_UNIT ( ) SI_UNIT ( $, .RADIAN. ) );
#35 = EDGE_LOOP ( 'NONE', ( #39, #42, #45, #13 ) ) ;
#36 = SURFACE_SIDE_STYLE ('',( #37 ) ) ;
#37 = SURFACE_STYLE_FILL_AREA ( #38 ) ;
#38 = FILL_AREA_STYLE ('',( #16 ) ) ;
#39 = ORIENTED_EDGE ( 'NONE', *, *, #53, .F. ) ;
#40 = FACE_OUTER_BOUND ( 'NONE', #5, .T. ) ;
#41 = DIRECTION ( 'NONE',  ( -0.0000000000000000000, -0.0000000000000000000, 1.000000000000000000 ) ) ;
#42 = ORIENTED_EDGE ( 'NONE', *, *, #52, .T. ) ;
#43 = COLOUR_RGB ( '',0.9568627450980391500, 0.9490196078431372100, 0.9607843137254902200 ) ;
#44 = ADVANCED_FACE ( 'NONE', ( #117 ), #78, .T. ) ;
#45 = ORIENTED_EDGE ( 'NONE', *, *, #8, .T. ) ;
#46 =( LENGTH_UNIT ( ) NAMED_UNIT ( * ) SI_UNIT ( .MILLI., .METRE. ) );
#47 = CARTESIAN_POINT ( 'NONE',  ( 12.70000000000000300, 0.0000000000000000000, 0.5974517512316677200 ) ) ;
#48 =( LENGTH_UNIT ( ) NAMED_UNIT ( * ) SI_UNIT ( .MILLI., .METRE. ) );
#49 = UNCERTAINTY_MEASURE_WITH_UNIT (LENGTH_MEASURE( 1.000000000000000100E-005 ), #46, 'distance_accuracy_value', 'NONE');
#50 =( NAMED_UNIT ( * ) SI_UNIT ( $, .STERADIAN. ) SOLID_ANGLE_UNIT ( ) );
#51 = SPHERICAL_SURFACE ( 'NONE', #28, 100.8900000000000000 ) ;
#52 = EDGE_CURVE ( 'NONE', #304, #2, #114, .T. ) ;
#53 = EDGE_CURVE ( 'NONE', #304, #305, #68, .T. ) ;
#54 = MECHANICAL_DESIGN_GEOMETRIC_PRESENTATION_REPRESENTATION (  '', ( #31 ), #30 ) ;
#55 = PRESENTATION_LAYER_ASSIGNMENT (  '', '', ( #31 ) ) ;
#56 = VECTOR ( 'NONE', #41, 1000.000000000000000 ) ;
#57 = CARTESIAN_POINT ( 'NONE',  ( 12.69999999999999900, 0.0000000000000000000, 9.045083263039238400 ) ) ;
#58 = PRESENTATION_LAYER_ASSIGNMENT (  '', '', ( #59 ) ) ;
#59 = STYLED_ITEM ( 'NONE', ( #102 ), #14 ) ;
#60 =( LENGTH_UNIT ( ) NAMED_UNIT ( * ) SI_UNIT ( .MILLI., .METRE. ) );
#61 = MECHANICAL_DESIGN_GEOMETRIC_PRESENTATION_REPRESENTATION (  '', ( #84 ), #79 ) ;
#62 = PRESENTATION_LAYER_ASSIGNMENT (  '', '', ( #84 ) ) ;
#63 =( NAMED_UNIT ( * ) SI_UNIT ( $, .STERADIAN. ) SOLID_ANGLE_UNIT ( ) );
#64 = DIRECTION ( 'NONE',  ( -0.0000000000000000000, -0.0000000000000000000, 1.000000000000000000 ) ) ;
#65 = DIRECTION ( 'NONE',  ( -1.224606353822377300E-016, -1.000000000000000000, 0.0000000000000000000 ) ) ;
#66 = DIRECTION ( 'NONE',  ( -1.000000000000000000, 1.224606353822377300E-016, 0.0000000000000000000 ) ) ;
#67 = AXIS2_PLACEMENT_3D ( 'NONE', #93, #66, #65 ) ;
#68 = CIRCLE ( 'NONE', #67, 100.8900000000000000 ) ;
#69 = MECHANICAL_DESIGN_GEOMETRIC_PRESENTATION_REPRESENTATION (  '', ( #59 ), #72 ) ;
#70 = AXIS2_PLACEMENT_3D ( 'NONE', #120, #101, #83 ) ;
#71 = CARTESIAN_POINT ( 'NONE',  ( 0.0000000000000000000, 12.69999999999999200, 0.5974517512316633900 ) ) ;
#72 =( GEOMETRIC_REPRESENTATION_CONTEXT ( 3 ) GLOBAL_UNCERTAINTY_ASSIGNED_CONTEXT ( ( #74 ) ) GLOBAL_UNIT_ASSIGNED_CONTEXT ( ( #60, #81, #63 ) ) REPRESENTATION_CONTEXT ( 'NONE', 'WORKASPACE' ) );
#73 = CIRCLE ( 'NONE', #95, 12.70000000000000100 ) ;
#74 = UNCERTAINTY_MEASURE_WITH_UNIT (LENGTH_MEASURE( 1.000000000000000100E-005 ), #60, 'distance_accuracy_value', 'NONE');
#75 = UNCERTAINTY_MEASURE_WITH_UNIT (LENGTH_MEASURE( 1.000000000000000100E-005 ), #96, 'distance_accuracy_value', 'NONE');
#76 =( NAMED_UNIT ( * ) SI_UNIT ( $, .STERADIAN. ) SOLID_ANGLE_UNIT ( ) );
#77 = FACE_OUTER_BOUND ( 'NONE', #9, .T. ) ;
#78 = SPHERICAL_SURFACE ( 'NONE', #113, 100.8900000000000000 ) ;
#79 =( GEOMETRIC_REPRESENTATION_CONTEXT ( 3 ) GLOBAL_UNCERTAINTY_ASSIGNED_CONTEXT ( ( #75 ) ) GLOBAL_UNIT_ASSIGNED_CONTEXT ( ( #96, #118, #76 ) ) REPRESENTATION_CONTEXT ( 'NONE', 'WORKASPACE' ) );
#80 = CARTESIAN_POINT ( 'NONE',  ( 0.0000000000000000000, 0.0000000000000000000, 0.5974517512316677200 ) ) ;
#81 =( NAMED_UNIT ( * ) PLANE_ANGLE_UNIT ( ) SI_UNIT ( $, .RADIAN. ) );
#82 = CIRCLE ( 'NONE', #116, 100.8900000000000000 ) ;
#83 = DIRECTION ( 'NONE',  ( 1.000000000000000000, 0.0000000000000000000, 0.0000000000000000000 ) ) ;
#84 = STYLED_ITEM ( 'NONE', ( #85 ), #44 ) ;
#85 = PRESENTATION_STYLE_ASSIGNMENT (( #86 ) ) ;
#86 = SURFACE_STYLE_USAGE ( .BOTH. , #87 ) ;
#87 = SURFACE_SIDE_STYLE ('',( #88 ) ) ;
#88 = SURFACE_STYLE_FILL_AREA ( #89 ) ;
#89 = FILL_AREA_STYLE ('',( #97 ) ) ;
#90 = DIRECTION ( 'NONE',  ( 1.000000000000000000, 0.0000000000000000000, 0.0000000000000000000 ) ) ;
#91 = CARTESIAN_POINT ( 'NONE',  ( 0.0000000000000000000, 0.0000000000000000000, 0.5974517512316677200 ) ) ;
#92 = AXIS2_PLACEMENT_3D ( 'NONE', #91, #106, #105 ) ;
#93 = CARTESIAN_POINT ( 'NONE',  ( 0.0000000000000000000, 0.0000000000000000000, -99.49002049180182900 ) ) ;
#94 = DIRECTION ( 'NONE',  ( 0.0000000000000000000, 1.000000000000000000, 0.0000000000000000000 ) ) ;
#95 = AXIS2_PLACEMENT_3D ( 'NONE', #80, #64, #90 ) ;
#96 =( LENGTH_UNIT ( ) NAMED_UNIT ( * ) SI_UNIT ( .MILLI., .METRE. ) );
#97 = FILL_AREA_STYLE_COLOUR ( '', #98 ) ;
#98 = COLOUR_RGB ( '',0.9568627450980391500, 0.9490196078431372100, 0.9607843137254902200 ) ;
#99 = DIRECTION ( 'NONE',  ( 0.0000000000000000000, 0.0000000000000000000, -1.000000000000000000 ) ) ;
#100 = DIRECTION ( 'NONE',  ( 1.000000000000000000, 0.0000000000000000000, 0.0000000000000000000 ) ) ;
#101 = DIRECTION ( 'NONE',  ( -0.0000000000000000000, -0.0000000000000000000, 1.000000000000000000 ) ) ;
#102 = PRESENTATION_STYLE_ASSIGNMENT (( #103 ) ) ;
#103 = SURFACE_STYLE_USAGE ( .BOTH. , #104 ) ;
#104 = SURFACE_SIDE_STYLE ('',( #109 ) ) ;
#105 = DIRECTION ( 'NONE',  ( 1.000000000000000000, 0.0000000000000000000, 0.0000000000000000000 ) ) ;
#106 = DIRECTION ( 'NONE',  ( -0.0000000000000000000, -0.0000000000000000000, 1.000000000000000000 ) ) ;
#107 = FILL_AREA_STYLE_COLOUR ( '', #108 ) ;
#108 = COLOUR_RGB ( '',0.9568627450980391500, 0.9490196078431372100, 0.9607843137254902200 ) ;
#109 = SURFACE_STYLE_FILL_AREA ( #110 ) ;
#110 = FILL_AREA_STYLE ('',( #107 ) ) ;
#111 = DIRECTION ( 'NONE',  ( -1.000000000000000000, 0.0000000000000000000, 0.0000000000000000000 ) ) ;
#112 = CARTESIAN_POINT ( 'NONE',  ( 0.0000000000000000000, 0.0000000000000000000, -99.49002049180182900 ) ) ;
#113 = AXIS2_PLACEMENT_3D ( 'NONE', #112, #111, #94 ) ;
#114 = CIRCLE ( 'NONE', #92, 12.70000000000000100 ) ;
#115 = CARTESIAN_POINT ( 'NONE',  ( 0.0000000000000000000, 0.0000000000000000000, -99.49002049180182900 ) ) ;
#116 = AXIS2_PLACEMENT_3D ( 'NONE', #115, #100, #99 ) ;
#117 = FACE_OUTER_BOUND ( 'NONE', #35, .T. ) ;
#118 =( NAMED_UNIT ( * ) PLANE_ANGLE_UNIT ( ) SI_UNIT ( $, .RADIAN. ) );
#119 = CYLINDRICAL_SURFACE ( 'NONE', #70, 12.69999999999999900 ) ;
#120 = CARTESIAN_POINT ( 'NONE',  ( 0.0000000000000000000, 0.0000000000000000000, 9.045083263039238400 ) ) ;
#121 =( NAMED_UNIT ( * ) SI_UNIT ( $, .STERADIAN. ) SOLID_ANGLE_UNIT ( ) );
#122 = AXIS2_PLACEMENT_3D ( 'NONE', #139, #138, #137 ) ;
#123 = CIRCLE ( 'NONE', #122, 12.69999999999999900 ) ;
#124 = FILL_AREA_STYLE_COLOUR ( '', #135 ) ;
#125 = DIRECTION ( 'NONE',  ( -1.000000000000000000, 0.0000000000000000000, 0.0000000000000000000 ) ) ;
#126 = PRESENTATION_LAYER_ASSIGNMENT (  '', '', ( #127 ) ) ;
#127 = STYLED_ITEM ( 'NONE', ( #128 ), #288 ) ;
#128 = PRESENTATION_STYLE_ASSIGNMENT (( #129 ) ) ;
#129 = SURFACE_STYLE_USAGE ( .BOTH. , #130 ) ;
#130 = SURFACE_SIDE_STYLE ('',( #146 ) ) ;
#131 = FACE_OUTER_BOUND ( 'NONE', #289, .T. ) ;
#132 = UNCERTAINTY_MEASURE_WITH_UNIT (LENGTH_MEASURE( 1.000000000000000100E-005 ), #151, 'distance_accuracy_value', 'NONE');
#133 =( NAMED_UNIT ( * ) PLANE_ANGLE_UNIT ( ) SI_UNIT ( $, .RADIAN. ) );
#134 = FILL_AREA_STYLE ('',( #124 ) ) ;
#135 = COLOUR_RGB ( '',0.9568627450980391500, 0.9490196078431372100, 0.9607843137254902200 ) ;
#136 = FACE_OUTER_BOUND ( 'NONE', #294, .T. ) ;
#137 = DIRECTION ( 'NONE',  ( 1.000000000000000000, 0.0000000000000000000, 0.0000000000000000000 ) ) ;
#138 = DIRECTION ( 'NONE',  ( -0.0000000000000000000, -0.0000000000000000000, 1.000000000000000000 ) ) ;
#139 = CARTESIAN_POINT ( 'NONE',  ( 0.0000000000000000000, 0.0000000000000000000, -1.399979508198180500 ) ) ;
#140 = UNCERTAINTY_MEASURE_WITH_UNIT (LENGTH_MEASURE( 1.000000000000000100E-005 ), #170, 'distance_accuracy_value', 'NONE');
#141 =( NAMED_UNIT ( * ) SI_UNIT ( $, .STERADIAN. ) SOLID_ANGLE_UNIT ( ) );
#142 = DIRECTION ( 'NONE',  ( -0.0000000000000000000, -0.0000000000000000000, 1.000000000000000000 ) ) ;
#143 = CARTESIAN_POINT ( 'NONE',  ( 0.0000000000000000000, 0.0000000000000000000, -1.399979508198180500 ) ) ;
#144 = AXIS2_PLACEMENT_3D ( 'NONE', #143, #142, #150 ) ;
#145 = CIRCLE ( 'NONE', #144, 12.69999999999999900 ) ;
#146 = SURFACE_STYLE_FILL_AREA ( #147 ) ;
#147 = FILL_AREA_STYLE ('',( #148 ) ) ;
#148 = FILL_AREA_STYLE_COLOUR ( '', #149 ) ;
#149 = COLOUR_RGB ( '',0.9568627450980391500, 0.9490196078431372100, 0.9607843137254902200 ) ;
#150 = DIRECTION ( 'NONE',  ( 1.000000000000000000, 0.0000000000000000000, 0.0000000000000000000 ) ) ;
#151 =( LENGTH_UNIT ( ) NAMED_UNIT ( * ) SI_UNIT ( .MILLI., .METRE. ) );
#152 = MECHANICAL_DESIGN_GEOMETRIC_PRESENTATION_REPRESENTATION (  '', ( #127 ), #159 ) ;
#153 =( NAMED_UNIT ( * ) PLANE_ANGLE_UNIT ( ) SI_UNIT ( $, .RADIAN. ) );
#154 = CARTESIAN_POINT ( 'NONE',  ( 0.0000000000000000000, 0.0000000000000000000, -289.3200204918018100 ) ) ;
#155 = AXIS2_PLACEMENT_3D ( 'NONE', #154, #125, #158 ) ;
#156 = SPHERICAL_SURFACE ( 'NONE', #155, 288.1999999999999900 ) ;
#157 = CARTESIAN_POINT ( 'NONE',  ( 0.0000000000000000000, 0.0000000000000000000, -289.3200204918018100 ) ) ;
#158 = DIRECTION ( 'NONE',  ( 0.0000000000000000000, 1.000000000000000000, 0.0000000000000000000 ) ) ;
#159 =( GEOMETRIC_REPRESENTATION_CONTEXT ( 3 ) GLOBAL_UNCERTAINTY_ASSIGNED_CONTEXT ( ( #132 ) ) GLOBAL_UNIT_ASSIGNED_CONTEXT ( ( #151, #133, #121 ) ) REPRESENTATION_CONTEXT ( 'NONE', 'WORKASPACE' ) );
#160 = PRESENTATION_LAYER_ASSIGNMENT (  '', '', ( #161 ) ) ;
#161 = STYLED_ITEM ( 'NONE', ( #162 ), #293 ) ;
#162 = PRESENTATION_STYLE_ASSIGNMENT (( #163 ) ) ;
#163 = SURFACE_STYLE_USAGE ( .BOTH. , #164 ) ;
#164 = SURFACE_SIDE_STYLE ('',( #165 ) ) ;
#165 = SURFACE_STYLE_FILL_AREA ( #134 ) ;
#166 = DIRECTION ( 'NONE',  ( 0.0000000000000000000, 0.0000000000000000000, -1.000000000000000000 ) ) ;
#167 = DIRECTION ( 'NONE',  ( 1.000000000000000000, -0.0000000000000000000, 0.0000000000000000000 ) ) ;
#168 = AXIS2_PLACEMENT_3D ( 'NONE', #157, #167, #166 ) ;
#169 = CIRCLE ( 'NONE', #168, 288.1999999999999900 ) ;
#170 =( LENGTH_UNIT ( ) NAMED_UNIT ( * ) SI_UNIT ( .MILLI., .METRE. ) );
#171 = MECHANICAL_DESIGN_GEOMETRIC_PRESENTATION_REPRESENTATION (  '', ( #161 ), #172 ) ;
#172 =( GEOMETRIC_REPRESENTATION_CONTEXT ( 3 ) GLOBAL_UNCERTAINTY_ASSIGNED_CONTEXT ( ( #140 ) ) GLOBAL_UNIT_ASSIGNED_CONTEXT ( ( #170, #153, #141 ) ) REPRESENTATION_CONTEXT ( 'NONE', 'WORKASPACE' ) );
#173 = CYLINDRICAL_SURFACE ( 'NONE', #175, 12.69999999999999900 ) ;
#174 = CARTESIAN_POINT ( 'NONE',  ( 0.0000000000000000000, 0.0000000000000000000, 9.045083263039238400 ) ) ;
#175 = AXIS2_PLACEMENT_3D ( 'NONE', #174, #176, #181 ) ;
#176 = DIRECTION ( 'NONE',  ( -0.0000000000000000000, -0.0000000000000000000, 1.000000000000000000 ) ) ;
#177 = DIRECTION ( 'NONE',  ( -0.0000000000000000000, -0.0000000000000000000, 1.000000000000000000 ) ) ;
#178 = CARTESIAN_POINT ( 'NONE',  ( 0.0000000000000000000, 0.0000000000000000000, -1.399979508198180500 ) ) ;
#179 = AXIS2_PLACEMENT_3D ( 'NONE', #178, #177, #18 ) ;
#180 = CIRCLE ( 'NONE', #179, 12.69999999999999900 ) ;
#181 = DIRECTION ( 'NONE',  ( 1.000000000000000000, 0.0000000000000000000, 0.0000000000000000000 ) ) ;
#182 = UNCERTAINTY_MEASURE_WITH_UNIT (LENGTH_MEASURE( 1.000000000000000100E-005 ), #218, 'distance_accuracy_value', 'NONE');
#183 = ADVANCED_BREP_SHAPE_REPRESENTATION ( '3456-E0W', ( #312, #268 ), #184 ) ;
#184 =( GEOMETRIC_REPRESENTATION_CONTEXT ( 3 ) GLOBAL_UNCERTAINTY_ASSIGNED_CONTEXT ( ( #229 ) ) GLOBAL_UNIT_ASSIGNED_CONTEXT ( ( #206, #205, #239 ) ) REPRESENTATION_CONTEXT ( 'NONE', 'WORKASPACE' ) );
#185 =( LENGTH_UNIT ( ) NAMED_UNIT ( * ) SI_UNIT ( .MILLI., .METRE. ) );
#186 = MECHANICAL_DESIGN_GEOMETRIC_PRESENTATION_REPRESENTATION (  '', ( #215 ), #247 ) ;
#187 = CARTESIAN_POINT ( 'NONE',  ( 0.0000000000000000000, 6.177526751856982300E-015, 1.399979508198173600 ) ) ;
#188 = MECHANICAL_DESIGN_GEOMETRIC_PRESENTATION_REPRESENTATION (  '', ( #240 ), #203 ) ;
#189 = PRESENTATION_LAYER_ASSIGNMENT (  '', '', ( #240 ) ) ;
#190 = CIRCLE ( 'NONE', #238, 12.70000000000000100 ) ;
#191 = CARTESIAN_POINT ( 'NONE',  ( -1.555250069354418300E-015, -12.69999999999999200, 0.5974517512316633900 ) ) ;
#192 = DIRECTION ( 'NONE',  ( 0.0000000000000000000, 1.000000000000000000, 0.0000000000000000000 ) ) ;
#193 = DIRECTION ( 'NONE',  ( -1.000000000000000000, 0.0000000000000000000, 0.0000000000000000000 ) ) ;
#194 = CARTESIAN_POINT ( 'NONE',  ( 0.0000000000000000000, 0.0000000000000000000, -289.3200204918018100 ) ) ;
#195 = AXIS2_PLACEMENT_3D ( 'NONE', #194, #193, #192 ) ;
#196 = SPHERICAL_SURFACE ( 'NONE', #195, 288.1999999999999900 ) ;
#197 =( NAMED_UNIT ( * ) PLANE_ANGLE_UNIT ( ) SI_UNIT ( $, .RADIAN. ) );
#198 =( NAMED_UNIT ( * ) SI_UNIT ( $, .STERADIAN. ) SOLID_ANGLE_UNIT ( ) );
#199 =( NAMED_UNIT ( * ) PLANE_ANGLE_UNIT ( ) SI_UNIT ( $, .RADIAN. ) );
#200 = CARTESIAN_POINT ( 'NONE',  ( -1.555250069354439400E-015, -12.70000000000016600, -1.399979508198190900 ) ) ;
#201 = CIRCLE ( 'NONE', #250, 12.69999999999999900 ) ;
#202 = FILL_AREA_STYLE_COLOUR ( '', #224 ) ;
#203 =( GEOMETRIC_REPRESENTATION_CONTEXT ( 3 ) GLOBAL_UNCERTAINTY_ASSIGNED_CONTEXT ( ( #182 ) ) GLOBAL_UNIT_ASSIGNED_CONTEXT ( ( #218, #199, #246 ) ) REPRESENTATION_CONTEXT ( 'NONE', 'WORKASPACE' ) );
#204 = DIRECTION ( 'NONE',  ( 1.000000000000000000, 0.0000000000000000000, 0.0000000000000000000 ) ) ;
#205 =( NAMED_UNIT ( * ) PLANE_ANGLE_UNIT ( ) SI_UNIT ( $, .RADIAN. ) );
#206 =( LENGTH_UNIT ( ) NAMED_UNIT ( * ) SI_UNIT ( .MILLI., .METRE. ) );
#207 = FILL_AREA_STYLE_COLOUR ( '', #208 ) ;
#208 = COLOUR_RGB ( '',0.7960784313725489700, 0.8235294117647058400, 0.9372549019607843100 ) ;
#209 = DIRECTION ( 'NONE',  ( -1.224606353822377500E-016, -1.000000000000000000, 0.0000000000000000000 ) ) ;
#210 = DIRECTION ( 'NONE',  ( -1.000000000000000000, 1.224606353822377300E-016, 0.0000000000000000000 ) ) ;
#211 = CARTESIAN_POINT ( 'NONE',  ( 0.0000000000000000000, 0.0000000000000000000, -289.3200204918018100 ) ) ;
#212 = AXIS2_PLACEMENT_3D ( 'NONE', #211, #210, #209 ) ;
#213 = CIRCLE ( 'NONE', #212, 288.1999999999999900 ) ;
#214 = PRESENTATION_LAYER_ASSIGNMENT (  '', '', ( #215 ) ) ;
#215 = STYLED_ITEM ( 'NONE', ( #216 ), #319 ) ;
#216 = PRESENTATION_STYLE_ASSIGNMENT (( #217 ) ) ;
#217 = SURFACE_STYLE_USAGE ( .BOTH. , #221 ) ;
#218 =( LENGTH_UNIT ( ) NAMED_UNIT ( * ) SI_UNIT ( .MILLI., .METRE. ) );
#219 = CARTESIAN_POINT ( 'NONE',  ( 0.0000000000000000000, 12.70000000000016600, -1.399979508198190900 ) ) ;
#220 = UNCERTAINTY_MEASURE_WITH_UNIT (LENGTH_MEASURE( 1.000000000000000100E-005 ), #185, 'distance_accuracy_value', 'NONE');
#221 = SURFACE_SIDE_STYLE ('',( #222 ) ) ;
#222 = SURFACE_STYLE_FILL_AREA ( #223 ) ;
#223 = FILL_AREA_STYLE ('',( #202 ) ) ;
#224 = COLOUR_RGB ( '',0.9568627450980391500, 0.9490196078431372100, 0.9607843137254902200 ) ;
#225 = FACE_OUTER_BOUND ( 'NONE', #311, .T. ) ;
#226 = FILL_AREA_STYLE ('',( #231 ) ) ;
#227 = COLOUR_RGB ( '',0.7960784313725489700, 0.8235294117647058400, 0.9372549019607843100 ) ;
#228 = CARTESIAN_POINT ( 'NONE',  ( 0.0000000000000000000, 1.764657755858045800E-014, -1.120020491801820800 ) ) ;
#229 = UNCERTAINTY_MEASURE_WITH_UNIT (LENGTH_MEASURE( 1.000000000000000100E-005 ), #206, 'distance_accuracy_value', 'NONE');
#230 = CARTESIAN_POINT ( 'NONE',  ( -12.70000000000000300, 1.555250069354419500E-015, 0.5974517512316677200 ) ) ;
#231 = FILL_AREA_STYLE_COLOUR ( '', #227 ) ;
#232 = CARTESIAN_POINT ( 'NONE',  ( 12.69999999999999900, 0.0000000000000000000, -1.399979508198180500 ) ) ;
#233 = DIRECTION ( 'NONE',  ( 1.000000000000000000, 0.0000000000000000000, 0.0000000000000000000 ) ) ;
#234 = DIRECTION ( 'NONE',  ( -0.0000000000000000000, -0.0000000000000000000, 1.000000000000000000 ) ) ;
#235 = CARTESIAN_POINT ( 'NONE',  ( -12.69999999999999900, 1.555250069354419100E-015, 9.045083263039238400 ) ) ;
#236 = DIRECTION ( 'NONE',  ( -0.0000000000000000000, -0.0000000000000000000, 1.000000000000000000 ) ) ;
#237 = CARTESIAN_POINT ( 'NONE',  ( 0.0000000000000000000, 0.0000000000000000000, 0.5974517512316677200 ) ) ;
#238 = AXIS2_PLACEMENT_3D ( 'NONE', #237, #236, #204 ) ;
#239 =( NAMED_UNIT ( * ) SI_UNIT ( $, .STERADIAN. ) SOLID_ANGLE_UNIT ( ) );
#240 = STYLED_ITEM ( 'NONE', ( #241 ), #312 ) ;
#241 = PRESENTATION_STYLE_ASSIGNMENT (( #242 ) ) ;
#242 = SURFACE_STYLE_USAGE ( .BOTH. , #243 ) ;
#243 = SURFACE_SIDE_STYLE ('',( #244 ) ) ;
#244 = SURFACE_STYLE_FILL_AREA ( #226 ) ;
#245 = CARTESIAN_POINT ( 'NONE',  ( -12.69999999999999900, 1.555250069354419100E-015, -1.399979508198180500 ) ) ;
#246 =( NAMED_UNIT ( * ) SI_UNIT ( $, .STERADIAN. ) SOLID_ANGLE_UNIT ( ) );
#247 =( GEOMETRIC_REPRESENTATION_CONTEXT ( 3 ) GLOBAL_UNCERTAINTY_ASSIGNED_CONTEXT ( ( #220 ) ) GLOBAL_UNIT_ASSIGNED_CONTEXT ( ( #185, #197, #198 ) ) REPRESENTATION_CONTEXT ( 'NONE', 'WORKASPACE' ) );
#248 = DIRECTION ( 'NONE',  ( -0.0000000000000000000, -0.0000000000000000000, 1.000000000000000000 ) ) ;
#249 = CARTESIAN_POINT ( 'NONE',  ( 0.0000000000000000000, 0.0000000000000000000, -1.399979508198180500 ) ) ;
#250 = AXIS2_PLACEMENT_3D ( 'NONE', #249, #248, #233 ) ;
#251 = VECTOR ( 'NONE', #234, 1000.000000000000000 ) ;
#252 = MECHANICAL_DESIGN_GEOMETRIC_PRESENTATION_REPRESENTATION (  '', ( #254 ), #264 ) ;
#253 = PRESENTATION_LAYER_ASSIGNMENT (  '', '', ( #254 ) ) ;
#254 = STYLED_ITEM ( 'NONE', ( #255 ), #183 ) ;
#255 = PRESENTATION_STYLE_ASSIGNMENT (( #256 ) ) ;
#256 = SURFACE_STYLE_USAGE ( .BOTH. , #257 ) ;
#257 = SURFACE_SIDE_STYLE ('',( #258 ) ) ;
#258 = SURFACE_STYLE_FILL_AREA ( #259 ) ;
#259 = FILL_AREA_STYLE ('',( #207 ) ) ;
#260 = LINE ( 'NONE', #235, #251 ) ;
#261 =( NAMED_UNIT ( * ) SI_UNIT ( $, .STERADIAN. ) SOLID_ANGLE_UNIT ( ) );
#262 =( NAMED_UNIT ( * ) PLANE_ANGLE_UNIT ( ) SI_UNIT ( $, .RADIAN. ) );
#263 = UNCERTAINTY_MEASURE_WITH_UNIT (LENGTH_MEASURE( 1.000000000000000100E-005 ), #48, 'distance_accuracy_value', 'NONE');
#264 =( GEOMETRIC_REPRESENTATION_CONTEXT ( 3 ) GLOBAL_UNCERTAINTY_ASSIGNED_CONTEXT ( ( #263 ) ) GLOBAL_UNIT_ASSIGNED_CONTEXT ( ( #48, #262, #261 ) ) REPRESENTATION_CONTEXT ( 'NONE', 'WORKASPACE' ) );
#265 = CARTESIAN_POINT ( 'NONE',  ( 0.0000000000000000000, 0.0000000000000000000, 0.0000000000000000000 ) ) ;
#266 = DIRECTION ( 'NONE',  ( 1.000000000000000000, 0.0000000000000000000, 0.0000000000000000000 ) ) ;
#267 = DIRECTION ( 'NONE',  ( 0.0000000000000000000, 0.0000000000000000000, 1.000000000000000000 ) ) ;
#268 = AXIS2_PLACEMENT_3D ( 'NONE', #265, #267, #266 ) ;
#269 = PRODUCT_DEFINITION_FORMATION_WITH_SPECIFIED_SOURCE ( 'ANY', '', #276, .NOT_KNOWN. ) ;
#270 = PRODUCT_DEFINITION ( 'UNKNOWN', '', #269, #271 ) ;
#271 = PRODUCT_DEFINITION_CONTEXT ( 'detailed design', #275, 'design' ) ;
#272 = APPLICATION_PROTOCOL_DEFINITION ( 'draft international standard', 'automotive_design', 1998, #275 ) ;
#273 = SHAPE_DEFINITION_REPRESENTATION ( #278, #183 ) ;
#274 = APPLICATION_CONTEXT ( 'automotive_design' ) ;
#275 = APPLICATION_CONTEXT ( 'automotive_design' ) ;
#276 = PRODUCT ( '3456-E0W', '3456-E0W', '', ( #280 ) ) ;
#277 = APPLICATION_PROTOCOL_DEFINITION ( 'draft international standard', 'automotive_design', 1998, #274 ) ;
#278 = PRODUCT_DEFINITION_SHAPE ( 'NONE', 'NONE',  #270 ) ;
#279 = PRODUCT_RELATED_PRODUCT_CATEGORY ( 'part', '', ( #276 ) ) ;
#280 = PRODUCT_CONTEXT ( 'NONE', #274, 'mechanical' ) ;
#281 = ORIENTED_EDGE ( 'NONE', *, *, #300, .F. ) ;
#282 = ORIENTED_EDGE ( 'NONE', *, *, #283, .T. ) ;
#283 = EDGE_CURVE ( 'NONE', #298, #307, #145, .T. ) ;
#284 = ORIENTED_EDGE ( 'NONE', *, *, #306, .T. ) ;
#285 = ORIENTED_EDGE ( 'NONE', *, *, #3, .T. ) ;
#286 = ORIENTED_EDGE ( 'NONE', *, *, #52, .F. ) ;
#287 = ORIENTED_EDGE ( 'NONE', *, *, #303, .F. ) ;
#288 = ADVANCED_FACE ( 'NONE', ( #131 ), #156, .F. ) ;
#289 = EDGE_LOOP ( 'NONE', ( #314, #315, #316, #317 ) ) ;
#290 = EDGE_CURVE ( 'NONE', #322, #310, #169, .T. ) ;
#291 = ORIENTED_EDGE ( 'NONE', *, *, #292, .F. ) ;
#292 = EDGE_CURVE ( 'NONE', #308, #322, #123, .T. ) ;
#293 = ADVANCED_FACE ( 'NONE', ( #136 ), #173, .T. ) ;
#294 = EDGE_LOOP ( 'NONE', ( #295, #296, #299, #12, #11, #6 ) ) ;
#295 = ORIENTED_EDGE ( 'NONE', *, *, #292, .T. ) ;
#296 = ORIENTED_EDGE ( 'NONE', *, *, #297, .T. ) ;
#297 = EDGE_CURVE ( 'NONE', #322, #298, #180, .T. ) ;
#298 = VERTEX_POINT ( 'NONE', #245 ) ;
#299 = ORIENTED_EDGE ( 'NONE', *, *, #300, .T. ) ;
#300 = EDGE_CURVE ( 'NONE', #298, #301, #260, .T. ) ;
#301 = VERTEX_POINT ( 'NONE', #230 ) ;
#302 = ORIENTED_EDGE ( 'NONE', *, *, #303, .T. ) ;
#303 = EDGE_CURVE ( 'NONE', #301, #304, #190, .T. ) ;
#304 = VERTEX_POINT ( 'NONE', #191 ) ;
#305 = VERTEX_POINT ( 'NONE', #187 ) ;
#306 = EDGE_CURVE ( 'NONE', #307, #308, #201, .T. ) ;
#307 = VERTEX_POINT ( 'NONE', #200 ) ;
#308 = VERTEX_POINT ( 'NONE', #232 ) ;
#309 = ORIENTED_EDGE ( 'NONE', *, *, #320, .T. ) ;
#310 = VERTEX_POINT ( 'NONE', #228 ) ;
#311 = EDGE_LOOP ( 'NONE', ( #313, #309, #321, #291 ) ) ;
#312 = MANIFOLD_SOLID_BREP ( 'NONE', #318 ) ;
#313 = ORIENTED_EDGE ( 'NONE', *, *, #306, .F. ) ;
#314 = ORIENTED_EDGE ( 'NONE', *, *, #320, .F. ) ;
#315 = ORIENTED_EDGE ( 'NONE', *, *, #283, .F. ) ;
#316 = ORIENTED_EDGE ( 'NONE', *, *, #297, .F. ) ;
#317 = ORIENTED_EDGE ( 'NONE', *, *, #290, .T. ) ;
#318 = CLOSED_SHELL ( 'NONE', ( #319, #293, #4, #44, #14, #288 ) ) ;
#319 = ADVANCED_FACE ( 'NONE', ( #225 ), #196, .F. ) ;
#320 = EDGE_CURVE ( 'NONE', #307, #310, #213, .T. ) ;
#321 = ORIENTED_EDGE ( 'NONE', *, *, #290, .F. ) ;
#322 = VERTEX_POINT ( 'NONE', #219 ) ;
ENDSEC;
END-ISO-10303-21;
