ISO-10303-21;
HEADER;
FILE_DESCRIPTION (( 'STEP AP214' ),
    '1' );
FILE_NAME ('4907-E0W.STEP',
    '2009-12-21T17:15:53',
    ( ' ' ),
    ( ' ' ),
    'SwSTEP 2.0',
    'SolidWorks 2009',
    '' );
FILE_SCHEMA (( 'AUTOMOTIVE_DESIGN' ));
ENDSEC;

DATA;
#1 = EDGE_CURVE ( 'NONE', #3, #22, #127, .T. ) ;
#2 = EDGE_CURVE ( 'NONE', #44, #3, #101, .T. ) ;
#3 = VERTEX_POINT ( 'NONE', #107 ) ;
#4 = VERTEX_POINT ( 'NONE', #106 ) ;
#5 = EDGE_LOOP ( 'NONE', ( #8, #92, #26, #24 ) ) ;
#6 = ORIENTED_EDGE ( 'NONE', *, *, #21, .F. ) ;
#7 = ORIENTED_EDGE ( 'NONE', *, *, #9, .F. ) ;
#8 = ORIENTED_EDGE ( 'NONE', *, *, #9, .T. ) ;
#9 = EDGE_CURVE ( 'NONE', #4, #18, #104, .T. ) ;
#10 = ADVANCED_FACE ( 'NONE', ( #126 ), #145, .T. ) ;
#11 = EDGE_CURVE ( 'NONE', #14, #32, #180, .T. ) ;
#12 = EDGE_CURVE ( 'NONE', #44, #27, #151, .T. ) ;
#13 = ORIENTED_EDGE ( 'NONE', *, *, #47, .T. ) ;
#14 = VERTEX_POINT ( 'NONE', #183 ) ;
#15 = ORIENTED_EDGE ( 'NONE', *, *, #36, .T. ) ;
#16 = ORIENTED_EDGE ( 'NONE', *, *, #21, .T. ) ;
#17 = ORIENTED_EDGE ( 'NONE', *, *, #57, .T. ) ;
#18 = VERTEX_POINT ( 'NONE', #182 ) ;
#19 = EDGE_LOOP ( 'NONE', ( #37, #39, #48, #52 ) ) ;
#20 = EDGE_CURVE ( 'NONE', #22, #18, #188, .T. ) ;
#21 = EDGE_CURVE ( 'NONE', #27, #4, #178, .T. ) ;
#22 = VERTEX_POINT ( 'NONE', #190 ) ;
#23 = ADVANCED_FACE ( 'NONE', ( #189 ), #164, .T. ) ;
#24 = ORIENTED_EDGE ( 'NONE', *, *, #36, .F. ) ;
#25 = EDGE_LOOP ( 'NONE', ( #38, #13, #17, #59, #29, #94 ) ) ;
#26 = ORIENTED_EDGE ( 'NONE', *, *, #11, .T. ) ;
#27 = VERTEX_POINT ( 'NONE', #171 ) ;
#28 = ORIENTED_EDGE ( 'NONE', *, *, #11, .F. ) ;
#29 = ORIENTED_EDGE ( 'NONE', *, *, #30, .F. ) ;
#30 = EDGE_CURVE ( 'NONE', #14, #27, #144, .T. ) ;
#31 = ORIENTED_EDGE ( 'NONE', *, *, #20, .T. ) ;
#32 = VERTEX_POINT ( 'NONE', #139 ) ;
#33 = ADVANCED_FACE ( 'NONE', ( #138 ), #198, .T. ) ;
#34 = ADVANCED_FACE ( 'NONE', ( #239 ), #233, .F. ) ;
#35 = ORIENTED_EDGE ( 'NONE', *, *, #12, .F. ) ;
#36 = EDGE_CURVE ( 'NONE', #4, #32, #227, .T. ) ;
#37 = ORIENTED_EDGE ( 'NONE', *, *, #42, .F. ) ;
#38 = ORIENTED_EDGE ( 'NONE', *, *, #20, .F. ) ;
#39 = ORIENTED_EDGE ( 'NONE', *, *, #47, .F. ) ;
#40 = ORIENTED_EDGE ( 'NONE', *, *, #42, .T. ) ;
#41 = ADVANCED_FACE ( 'NONE', ( #207 ), #253, .F. ) ;
#42 = EDGE_CURVE ( 'NONE', #56, #60, #278, .T. ) ;
#43 = ORIENTED_EDGE ( 'NONE', *, *, #91, .F. ) ;
#44 = VERTEX_POINT ( 'NONE', #242 ) ;
#45 = ORIENTED_EDGE ( 'NONE', *, *, #30, .T. ) ;
#46 = EDGE_LOOP ( 'NONE', ( #51, #40, #43, #95 ) ) ;
#47 = EDGE_CURVE ( 'NONE', #22, #56, #241, .T. ) ;
#48 = ORIENTED_EDGE ( 'NONE', *, *, #1, .F. ) ;
#49 = MANIFOLD_SOLID_BREP ( 'NONE', #61 ) ;
#50 = MECHANICAL_DESIGN_GEOMETRIC_PRESENTATION_REPRESENTATION (  '', ( #131 ), #71 ) ;
#51 = ORIENTED_EDGE ( 'NONE', *, *, #57, .F. ) ;
#52 = ORIENTED_EDGE ( 'NONE', *, *, #91, .T. ) ;
#53 = EDGE_CURVE ( 'NONE', #18, #14, #244, .T. ) ;
#54 = PRESENTATION_LAYER_ASSIGNMENT (  '', '', ( #131 ) ) ;
#55 = ADVANCED_FACE ( 'NONE', ( #251 ), #302, .T. ) ;
#56 = VERTEX_POINT ( 'NONE', #301 ) ;
#57 = EDGE_CURVE ( 'NONE', #56, #44, #291, .T. ) ;
#58 =( NAMED_UNIT ( * ) PLANE_ANGLE_UNIT ( ) SI_UNIT ( $, .RADIAN. ) );
#59 = ORIENTED_EDGE ( 'NONE', *, *, #12, .T. ) ;
#60 = VERTEX_POINT ( 'NONE', #292 ) ;
#61 = CLOSED_SHELL ( 'NONE', ( #41, #10, #33, #55, #23, #34 ) ) ;
#62 =( LENGTH_UNIT ( ) NAMED_UNIT ( * ) SI_UNIT ( .MILLI., .METRE. ) );
#63 = EDGE_LOOP ( 'NONE', ( #28, #45, #16, #15 ) ) ;
#64 =( NAMED_UNIT ( * ) SI_UNIT ( $, .STERADIAN. ) SOLID_ANGLE_UNIT ( ) );
#65 =( LENGTH_UNIT ( ) NAMED_UNIT ( * ) SI_UNIT ( .MILLI., .METRE. ) );
#66 =( NAMED_UNIT ( * ) SI_UNIT ( $, .STERADIAN. ) SOLID_ANGLE_UNIT ( ) );
#67 =( NAMED_UNIT ( * ) PLANE_ANGLE_UNIT ( ) SI_UNIT ( $, .RADIAN. ) );
#68 =( GEOMETRIC_REPRESENTATION_CONTEXT ( 3 ) GLOBAL_UNCERTAINTY_ASSIGNED_CONTEXT ( ( #194 ) ) GLOBAL_UNIT_ASSIGNED_CONTEXT ( ( #237, #236, #195 ) ) REPRESENTATION_CONTEXT ( 'NONE', 'WORKASPACE' ) );
#69 = UNCERTAINTY_MEASURE_WITH_UNIT (LENGTH_MEASURE( 1.000000000000000100E-005 ), #62, 'distance_accuracy_value', 'NONE');
#70 = UNCERTAINTY_MEASURE_WITH_UNIT (LENGTH_MEASURE( 1.000000000000000100E-005 ), #65, 'distance_accuracy_value', 'NONE');
#71 =( GEOMETRIC_REPRESENTATION_CONTEXT ( 3 ) GLOBAL_UNCERTAINTY_ASSIGNED_CONTEXT ( ( #69 ) ) GLOBAL_UNIT_ASSIGNED_CONTEXT ( ( #62, #58, #64 ) ) REPRESENTATION_CONTEXT ( 'NONE', 'WORKASPACE' ) );
#72 = ADVANCED_BREP_SHAPE_REPRESENTATION ( '4907-E0W', ( #49, #308 ), #75 ) ;
#73 =( GEOMETRIC_REPRESENTATION_CONTEXT ( 3 ) GLOBAL_UNCERTAINTY_ASSIGNED_CONTEXT ( ( #70 ) ) GLOBAL_UNIT_ASSIGNED_CONTEXT ( ( #65, #67, #66 ) ) REPRESENTATION_CONTEXT ( 'NONE', 'WORKASPACE' ) );
#74 = DIRECTION ( 'NONE',  ( 0.0000000000000000000, 0.0000000000000000000, -1.000000000000000000 ) ) ;
#75 =( GEOMETRIC_REPRESENTATION_CONTEXT ( 3 ) GLOBAL_UNCERTAINTY_ASSIGNED_CONTEXT ( ( #304 ) ) GLOBAL_UNIT_ASSIGNED_CONTEXT ( ( #303, #306, #305 ) ) REPRESENTATION_CONTEXT ( 'NONE', 'WORKASPACE' ) );
#76 = FILL_AREA_STYLE ('',( #79 ) ) ;
#77 = SURFACE_SIDE_STYLE ('',( #78 ) ) ;
#78 = SURFACE_STYLE_FILL_AREA ( #76 ) ;
#79 = FILL_AREA_STYLE_COLOUR ( '', #80 ) ;
#80 = COLOUR_RGB ( '',0.7960784313725489700, 0.8235294117647058400, 0.9372549019607843100 ) ;
#81 = SURFACE_STYLE_USAGE ( .BOTH. , #77 ) ;
#82 = PRESENTATION_STYLE_ASSIGNMENT (( #81 ) ) ;
#83 =( LENGTH_UNIT ( ) NAMED_UNIT ( * ) SI_UNIT ( .MILLI., .METRE. ) );
#84 = MECHANICAL_DESIGN_GEOMETRIC_PRESENTATION_REPRESENTATION (  '', ( #86 ), #97 ) ;
#85 = PRESENTATION_LAYER_ASSIGNMENT (  '', '', ( #86 ) ) ;
#86 = STYLED_ITEM ( 'NONE', ( #82 ), #72 ) ;
#87 =( NAMED_UNIT ( * ) PLANE_ANGLE_UNIT ( ) SI_UNIT ( $, .RADIAN. ) );
#88 =( NAMED_UNIT ( * ) SI_UNIT ( $, .STERADIAN. ) SOLID_ANGLE_UNIT ( ) );
#89 = EDGE_LOOP ( 'NONE', ( #96, #93, #31, #7, #6, #35 ) ) ;
#90 = UNCERTAINTY_MEASURE_WITH_UNIT (LENGTH_MEASURE( 1.000000000000000100E-005 ), #83, 'distance_accuracy_value', 'NONE');
#91 = EDGE_CURVE ( 'NONE', #3, #60, #297, .T. ) ;
#92 = ORIENTED_EDGE ( 'NONE', *, *, #53, .T. ) ;
#93 = ORIENTED_EDGE ( 'NONE', *, *, #1, .T. ) ;
#94 = ORIENTED_EDGE ( 'NONE', *, *, #53, .F. ) ;
#95 = ORIENTED_EDGE ( 'NONE', *, *, #2, .F. ) ;
#96 = ORIENTED_EDGE ( 'NONE', *, *, #2, .T. ) ;
#97 =( GEOMETRIC_REPRESENTATION_CONTEXT ( 3 ) GLOBAL_UNCERTAINTY_ASSIGNED_CONTEXT ( ( #90 ) ) GLOBAL_UNIT_ASSIGNED_CONTEXT ( ( #83, #87, #88 ) ) REPRESENTATION_CONTEXT ( 'NONE', 'WORKASPACE' ) );
#98 = UNCERTAINTY_MEASURE_WITH_UNIT (LENGTH_MEASURE( 1.000000000000000100E-005 ), #128, 'distance_accuracy_value', 'NONE');
#99 =( NAMED_UNIT ( * ) SI_UNIT ( $, .STERADIAN. ) SOLID_ANGLE_UNIT ( ) );
#100 =( NAMED_UNIT ( * ) PLANE_ANGLE_UNIT ( ) SI_UNIT ( $, .RADIAN. ) );
#101 = CIRCLE ( 'NONE', #110, 12.70000000000000500 ) ;
#102 = DIRECTION ( 'NONE',  ( 1.000000000000000000, 0.0000000000000000000, 0.0000000000000000000 ) ) ;
#103 = AXIS2_PLACEMENT_3D ( 'NONE', #119, #118, #102 ) ;
#104 = CIRCLE ( 'NONE', #125, 12.70000000000000100 ) ;
#105 = COLOUR_RGB ( '',0.9568627450980391500, 0.9490196078431372100, 0.9607843137254902200 ) ;
#106 = CARTESIAN_POINT ( 'NONE',  ( 0.0000000000000000000, 12.69999999999999200, 1.646140624853117200 ) ) ;
#107 = CARTESIAN_POINT ( 'NONE',  ( 0.0000000000000000000, 12.70000000000001000, -2.455868924448946000 ) ) ;
#108 = DIRECTION ( 'NONE',  ( 1.000000000000000000, 0.0000000000000000000, 0.0000000000000000000 ) ) ;
#109 = DIRECTION ( 'NONE',  ( -0.0000000000000000000, -0.0000000000000000000, 1.000000000000000000 ) ) ;
#110 = AXIS2_PLACEMENT_3D ( 'NONE', #120, #109, #108 ) ;
#111 = STYLED_ITEM ( 'NONE', ( #112 ), #10 ) ;
#112 = PRESENTATION_STYLE_ASSIGNMENT (( #113 ) ) ;
#113 = SURFACE_STYLE_USAGE ( .BOTH. , #114 ) ;
#114 = SURFACE_SIDE_STYLE ('',( #115 ) ) ;
#115 = SURFACE_STYLE_FILL_AREA ( #116 ) ;
#116 = FILL_AREA_STYLE ('',( #117 ) ) ;
#117 = FILL_AREA_STYLE_COLOUR ( '', #105 ) ;
#118 = DIRECTION ( 'NONE',  ( -0.0000000000000000000, -0.0000000000000000000, 1.000000000000000000 ) ) ;
#119 = CARTESIAN_POINT ( 'NONE',  ( 0.0000000000000000000, 0.0000000000000000000, -2.455868924448944200 ) ) ;
#120 = CARTESIAN_POINT ( 'NONE',  ( 0.0000000000000000000, 0.0000000000000000000, -2.455868924448944200 ) ) ;
#121 =( GEOMETRIC_REPRESENTATION_CONTEXT ( 3 ) GLOBAL_UNCERTAINTY_ASSIGNED_CONTEXT ( ( #98 ) ) GLOBAL_UNIT_ASSIGNED_CONTEXT ( ( #128, #100, #99 ) ) REPRESENTATION_CONTEXT ( 'NONE', 'WORKASPACE' ) );
#122 = DIRECTION ( 'NONE',  ( 1.000000000000000000, 0.0000000000000000000, 0.0000000000000000000 ) ) ;
#123 = DIRECTION ( 'NONE',  ( -0.0000000000000000000, -0.0000000000000000000, 1.000000000000000000 ) ) ;
#124 = CARTESIAN_POINT ( 'NONE',  ( 0.0000000000000000000, 0.0000000000000000000, 1.646140624853116300 ) ) ;
#125 = AXIS2_PLACEMENT_3D ( 'NONE', #124, #123, #122 ) ;
#126 = FACE_OUTER_BOUND ( 'NONE', #89, .T. ) ;
#127 = CIRCLE ( 'NONE', #103, 12.70000000000000500 ) ;
#128 =( LENGTH_UNIT ( ) NAMED_UNIT ( * ) SI_UNIT ( .MILLI., .METRE. ) );
#129 = MECHANICAL_DESIGN_GEOMETRIC_PRESENTATION_REPRESENTATION (  '', ( #111 ), #121 ) ;
#130 = PRESENTATION_LAYER_ASSIGNMENT (  '', '', ( #111 ) ) ;
#131 = STYLED_ITEM ( 'NONE', ( #132 ), #33 ) ;
#132 = PRESENTATION_STYLE_ASSIGNMENT (( #133 ) ) ;
#133 = SURFACE_STYLE_USAGE ( .BOTH. , #134 ) ;
#134 = SURFACE_SIDE_STYLE ('',( #135 ) ) ;
#135 = SURFACE_STYLE_FILL_AREA ( #136 ) ;
#136 = FILL_AREA_STYLE ('',( #168 ) ) ;
#137 = COLOUR_RGB ( '',0.9568627450980391500, 0.9490196078431372100, 0.9607843137254902200 ) ;
#138 = FACE_OUTER_BOUND ( 'NONE', #5, .T. ) ;
#139 = CARTESIAN_POINT ( 'NONE',  ( 0.0000000000000000000, 6.123031769111886300E-015, 2.455868924448947800 ) ) ;
#140 = DIRECTION ( 'NONE',  ( 1.000000000000000000, 0.0000000000000000000, 0.0000000000000000000 ) ) ;
#141 = DIRECTION ( 'NONE',  ( -0.0000000000000000000, -0.0000000000000000000, 1.000000000000000000 ) ) ;
#142 = CARTESIAN_POINT ( 'NONE',  ( 0.0000000000000000000, 0.0000000000000000000, 1.646140624853116300 ) ) ;
#143 = AXIS2_PLACEMENT_3D ( 'NONE', #142, #141, #140 ) ;
#144 = CIRCLE ( 'NONE', #143, 12.70000000000000100 ) ;
#145 = CYLINDRICAL_SURFACE ( 'NONE', #146, 12.70000000000000300 ) ;
#146 = AXIS2_PLACEMENT_3D ( 'NONE', #150, #184, #172 ) ;
#147 = MECHANICAL_DESIGN_GEOMETRIC_PRESENTATION_REPRESENTATION (  '', ( #149 ), #165 ) ;
#148 = PRESENTATION_LAYER_ASSIGNMENT (  '', '', ( #149 ) ) ;
#149 = STYLED_ITEM ( 'NONE', ( #154 ), #23 ) ;
#150 = CARTESIAN_POINT ( 'NONE',  ( 0.0000000000000000000, 0.0000000000000000000, 9.860972679289998800 ) ) ;
#151 = LINE ( 'NONE', #176, #175 ) ;
#152 = DIRECTION ( 'NONE',  ( -1.224606353822377300E-016, -1.000000000000000000, 0.0000000000000000000 ) ) ;
#153 = DIRECTION ( 'NONE',  ( -1.000000000000000000, 1.224606353822377300E-016, 0.0000000000000000000 ) ) ;
#154 = PRESENTATION_STYLE_ASSIGNMENT (( #155 ) ) ;
#155 = SURFACE_STYLE_USAGE ( .BOTH. , #156 ) ;
#156 = SURFACE_SIDE_STYLE ('',( #157 ) ) ;
#157 = SURFACE_STYLE_FILL_AREA ( #158 ) ;
#158 = FILL_AREA_STYLE ('',( #159 ) ) ;
#159 = FILL_AREA_STYLE_COLOUR ( '', #160 ) ;
#160 = COLOUR_RGB ( '',0.9568627450980391500, 0.9490196078431372100, 0.9607843137254902200 ) ;
#161 =( LENGTH_UNIT ( ) NAMED_UNIT ( * ) SI_UNIT ( .MILLI., .METRE. ) );
#162 = CARTESIAN_POINT ( 'NONE',  ( 0.0000000000000000000, 0.0000000000000000000, 9.860972679289998800 ) ) ;
#163 = AXIS2_PLACEMENT_3D ( 'NONE', #162, #170, #169 ) ;
#164 = CYLINDRICAL_SURFACE ( 'NONE', #163, 12.70000000000000300 ) ;
#165 =( GEOMETRIC_REPRESENTATION_CONTEXT ( 3 ) GLOBAL_UNCERTAINTY_ASSIGNED_CONTEXT ( ( #181 ) ) GLOBAL_UNIT_ASSIGNED_CONTEXT ( ( #161, #167, #166 ) ) REPRESENTATION_CONTEXT ( 'NONE', 'WORKASPACE' ) );
#166 =( NAMED_UNIT ( * ) SI_UNIT ( $, .STERADIAN. ) SOLID_ANGLE_UNIT ( ) );
#167 =( NAMED_UNIT ( * ) PLANE_ANGLE_UNIT ( ) SI_UNIT ( $, .RADIAN. ) );
#168 = FILL_AREA_STYLE_COLOUR ( '', #137 ) ;
#169 = DIRECTION ( 'NONE',  ( 1.000000000000000000, 0.0000000000000000000, 0.0000000000000000000 ) ) ;
#170 = DIRECTION ( 'NONE',  ( -0.0000000000000000000, -0.0000000000000000000, 1.000000000000000000 ) ) ;
#171 = CARTESIAN_POINT ( 'NONE',  ( 12.70000000000000100, 0.0000000000000000000, 1.646140624853116300 ) ) ;
#172 = DIRECTION ( 'NONE',  ( 1.000000000000000000, 0.0000000000000000000, 0.0000000000000000000 ) ) ;
#173 = CARTESIAN_POINT ( 'NONE',  ( 0.0000000000000000000, 0.0000000000000000000, -97.54413107555106400 ) ) ;
#174 = DIRECTION ( 'NONE',  ( -0.0000000000000000000, -0.0000000000000000000, 1.000000000000000000 ) ) ;
#175 = VECTOR ( 'NONE', #174, 1000.000000000000000 ) ;
#176 = CARTESIAN_POINT ( 'NONE',  ( 12.70000000000000300, 0.0000000000000000000, 9.860972679289998800 ) ) ;
#177 = AXIS2_PLACEMENT_3D ( 'NONE', #193, #192, #191 ) ;
#178 = CIRCLE ( 'NONE', #177, 12.70000000000000100 ) ;
#179 = AXIS2_PLACEMENT_3D ( 'NONE', #173, #153, #152 ) ;
#180 = CIRCLE ( 'NONE', #179, 100.0000000000000000 ) ;
#181 = UNCERTAINTY_MEASURE_WITH_UNIT (LENGTH_MEASURE( 1.000000000000000100E-005 ), #161, 'distance_accuracy_value', 'NONE');
#182 = CARTESIAN_POINT ( 'NONE',  ( -12.70000000000000100, 1.555250069354419300E-015, 1.646140624853116300 ) ) ;
#183 = CARTESIAN_POINT ( 'NONE',  ( -1.555250069354418500E-015, -12.69999999999999200, 1.646140624853117200 ) ) ;
#184 = DIRECTION ( 'NONE',  ( -0.0000000000000000000, -0.0000000000000000000, 1.000000000000000000 ) ) ;
#185 = DIRECTION ( 'NONE',  ( -0.0000000000000000000, -0.0000000000000000000, 1.000000000000000000 ) ) ;
#186 = VECTOR ( 'NONE', #185, 1000.000000000000000 ) ;
#187 = CARTESIAN_POINT ( 'NONE',  ( -12.70000000000000300, 1.555250069354419500E-015, 9.860972679289998800 ) ) ;
#188 = LINE ( 'NONE', #187, #186 ) ;
#189 = FACE_OUTER_BOUND ( 'NONE', #25, .T. ) ;
#190 = CARTESIAN_POINT ( 'NONE',  ( -12.70000000000000600, 1.555250069354419900E-015, -2.455868924448944200 ) ) ;
#191 = DIRECTION ( 'NONE',  ( 1.000000000000000000, 0.0000000000000000000, 0.0000000000000000000 ) ) ;
#192 = DIRECTION ( 'NONE',  ( -0.0000000000000000000, -0.0000000000000000000, 1.000000000000000000 ) ) ;
#193 = CARTESIAN_POINT ( 'NONE',  ( 0.0000000000000000000, 0.0000000000000000000, 1.646140624853116300 ) ) ;
#194 = UNCERTAINTY_MEASURE_WITH_UNIT (LENGTH_MEASURE( 1.000000000000000100E-005 ), #237, 'distance_accuracy_value', 'NONE');
#195 =( NAMED_UNIT ( * ) SI_UNIT ( $, .STERADIAN. ) SOLID_ANGLE_UNIT ( ) );
#196 = DIRECTION ( 'NONE',  ( -1.000000000000000000, 0.0000000000000000000, 0.0000000000000000000 ) ) ;
#197 = SURFACE_STYLE_USAGE ( .BOTH. , #228 ) ;
#198 = SPHERICAL_SURFACE ( 'NONE', #205, 100.0000000000000000 ) ;
#199 = CARTESIAN_POINT ( 'NONE',  ( 0.0000000000000000000, 0.0000000000000000000, -43.68413107555106500 ) ) ;
#200 = AXIS2_PLACEMENT_3D ( 'NONE', #199, #209, #208 ) ;
#201 = PRESENTATION_LAYER_ASSIGNMENT (  '', '', ( #232 ) ) ;
#202 =( NAMED_UNIT ( * ) PLANE_ANGLE_UNIT ( ) SI_UNIT ( $, .RADIAN. ) );
#203 = UNCERTAINTY_MEASURE_WITH_UNIT (LENGTH_MEASURE( 1.000000000000000100E-005 ), #229, 'distance_accuracy_value', 'NONE');
#204 =( NAMED_UNIT ( * ) SI_UNIT ( $, .STERADIAN. ) SOLID_ANGLE_UNIT ( ) );
#205 = AXIS2_PLACEMENT_3D ( 'NONE', #212, #196, #211 ) ;
#206 = FILL_AREA_STYLE ('',( #238 ) ) ;
#207 = FACE_OUTER_BOUND ( 'NONE', #46, .T. ) ;
#208 = DIRECTION ( 'NONE',  ( 0.0000000000000000000, 1.000000000000000000, 0.0000000000000000000 ) ) ;
#209 = DIRECTION ( 'NONE',  ( -1.000000000000000000, 0.0000000000000000000, 0.0000000000000000000 ) ) ;
#210 = COLOUR_RGB ( '',0.9568627450980391500, 0.9490196078431372100, 0.9607843137254902200 ) ;
#211 = DIRECTION ( 'NONE',  ( 0.0000000000000000000, 1.000000000000000000, 0.0000000000000000000 ) ) ;
#212 = CARTESIAN_POINT ( 'NONE',  ( 0.0000000000000000000, 0.0000000000000000000, -97.54413107555106400 ) ) ;
#213 = MECHANICAL_DESIGN_GEOMETRIC_PRESENTATION_REPRESENTATION (  '', ( #215 ), #68 ) ;
#214 = PRESENTATION_LAYER_ASSIGNMENT (  '', '', ( #215 ) ) ;
#215 = STYLED_ITEM ( 'NONE', ( #216 ), #41 ) ;
#216 = PRESENTATION_STYLE_ASSIGNMENT (( #217 ) ) ;
#217 = SURFACE_STYLE_USAGE ( .BOTH. , #218 ) ;
#218 = SURFACE_SIDE_STYLE ('',( #219 ) ) ;
#219 = SURFACE_STYLE_FILL_AREA ( #220 ) ;
#220 = FILL_AREA_STYLE ('',( #221 ) ) ;
#221 = FILL_AREA_STYLE_COLOUR ( '', #222 ) ;
#222 = COLOUR_RGB ( '',0.9568627450980391500, 0.9490196078431372100, 0.9607843137254902200 ) ;
#223 = DIRECTION ( 'NONE',  ( 0.0000000000000000000, 0.0000000000000000000, -1.000000000000000000 ) ) ;
#224 = DIRECTION ( 'NONE',  ( 1.000000000000000000, 0.0000000000000000000, 0.0000000000000000000 ) ) ;
#225 = CARTESIAN_POINT ( 'NONE',  ( 0.0000000000000000000, 0.0000000000000000000, -97.54413107555106400 ) ) ;
#226 = AXIS2_PLACEMENT_3D ( 'NONE', #225, #224, #223 ) ;
#227 = CIRCLE ( 'NONE', #226, 100.0000000000000100 ) ;
#228 = SURFACE_SIDE_STYLE ('',( #235 ) ) ;
#229 =( LENGTH_UNIT ( ) NAMED_UNIT ( * ) SI_UNIT ( .MILLI., .METRE. ) );
#230 = MECHANICAL_DESIGN_GEOMETRIC_PRESENTATION_REPRESENTATION (  '', ( #232 ), #234 ) ;
#231 = PRESENTATION_STYLE_ASSIGNMENT (( #197 ) ) ;
#232 = STYLED_ITEM ( 'NONE', ( #231 ), #34 ) ;
#233 = SPHERICAL_SURFACE ( 'NONE', #200, 43.14000000000000100 ) ;
#234 =( GEOMETRIC_REPRESENTATION_CONTEXT ( 3 ) GLOBAL_UNCERTAINTY_ASSIGNED_CONTEXT ( ( #203 ) ) GLOBAL_UNIT_ASSIGNED_CONTEXT ( ( #229, #202, #204 ) ) REPRESENTATION_CONTEXT ( 'NONE', 'WORKASPACE' ) );
#235 = SURFACE_STYLE_FILL_AREA ( #206 ) ;
#236 =( NAMED_UNIT ( * ) PLANE_ANGLE_UNIT ( ) SI_UNIT ( $, .RADIAN. ) );
#237 =( LENGTH_UNIT ( ) NAMED_UNIT ( * ) SI_UNIT ( .MILLI., .METRE. ) );
#238 = FILL_AREA_STYLE_COLOUR ( '', #210 ) ;
#239 = FACE_OUTER_BOUND ( 'NONE', #19, .T. ) ;
#240 = CARTESIAN_POINT ( 'NONE',  ( 0.0000000000000000000, 0.0000000000000000000, -2.455868924448944200 ) ) ;
#241 = CIRCLE ( 'NONE', #286, 12.70000000000000500 ) ;
#242 = CARTESIAN_POINT ( 'NONE',  ( 12.70000000000000500, 0.0000000000000000000, -2.455868924448944200 ) ) ;
#243 = SURFACE_STYLE_FILL_AREA ( #245 ) ;
#244 = CIRCLE ( 'NONE', #250, 12.70000000000000100 ) ;
#245 = FILL_AREA_STYLE ('',( #281 ) ) ;
#246 = DIRECTION ( 'NONE',  ( 0.0000000000000000000, 1.000000000000000000, 0.0000000000000000000 ) ) ;
#247 = SURFACE_STYLE_USAGE ( .BOTH. , #267 ) ;
#248 = DIRECTION ( 'NONE',  ( 1.000000000000000000, 0.0000000000000000000, 0.0000000000000000000 ) ) ;
#249 = DIRECTION ( 'NONE',  ( -0.0000000000000000000, -0.0000000000000000000, 1.000000000000000000 ) ) ;
#250 = AXIS2_PLACEMENT_3D ( 'NONE', #265, #249, #248 ) ;
#251 = FACE_OUTER_BOUND ( 'NONE', #63, .T. ) ;
#252 =( LENGTH_UNIT ( ) NAMED_UNIT ( * ) SI_UNIT ( .MILLI., .METRE. ) );
#253 = SPHERICAL_SURFACE ( 'NONE', #272, 43.14000000000000100 ) ;
#254 = MECHANICAL_DESIGN_GEOMETRIC_PRESENTATION_REPRESENTATION (  '', ( #256 ), #73 ) ;
#255 = PRESENTATION_LAYER_ASSIGNMENT (  '', '', ( #256 ) ) ;
#256 = STYLED_ITEM ( 'NONE', ( #257 ), #55 ) ;
#257 = PRESENTATION_STYLE_ASSIGNMENT (( #258 ) ) ;
#258 = SURFACE_STYLE_USAGE ( .BOTH. , #259 ) ;
#259 = SURFACE_SIDE_STYLE ('',( #260 ) ) ;
#260 = SURFACE_STYLE_FILL_AREA ( #261 ) ;
#261 = FILL_AREA_STYLE ('',( #262 ) ) ;
#262 = FILL_AREA_STYLE_COLOUR ( '', #263 ) ;
#263 = COLOUR_RGB ( '',0.9568627450980391500, 0.9490196078431372100, 0.9607843137254902200 ) ;
#264 = PRESENTATION_STYLE_ASSIGNMENT (( #247 ) ) ;
#265 = CARTESIAN_POINT ( 'NONE',  ( 0.0000000000000000000, 0.0000000000000000000, 1.646140624853116300 ) ) ;
#266 =( GEOMETRIC_REPRESENTATION_CONTEXT ( 3 ) GLOBAL_UNCERTAINTY_ASSIGNED_CONTEXT ( ( #269 ) ) GLOBAL_UNIT_ASSIGNED_CONTEXT ( ( #252, #282, #276 ) ) REPRESENTATION_CONTEXT ( 'NONE', 'WORKASPACE' ) );
#267 = SURFACE_SIDE_STYLE ('',( #243 ) ) ;
#268 = COLOUR_RGB ( '',0.7960784313725489700, 0.8235294117647058400, 0.9372549019607843100 ) ;
#269 = UNCERTAINTY_MEASURE_WITH_UNIT (LENGTH_MEASURE( 1.000000000000000100E-005 ), #252, 'distance_accuracy_value', 'NONE');
#270 = MECHANICAL_DESIGN_GEOMETRIC_PRESENTATION_REPRESENTATION (  '', ( #284 ), #266 ) ;
#271 = PRESENTATION_LAYER_ASSIGNMENT (  '', '', ( #284 ) ) ;
#272 = AXIS2_PLACEMENT_3D ( 'NONE', #275, #277, #246 ) ;
#273 = AXIS2_PLACEMENT_3D ( 'NONE', #280, #279, #283 ) ;
#274 = DIRECTION ( 'NONE',  ( 1.000000000000000000, 0.0000000000000000000, 0.0000000000000000000 ) ) ;
#275 = CARTESIAN_POINT ( 'NONE',  ( 0.0000000000000000000, 0.0000000000000000000, -43.68413107555106500 ) ) ;
#276 =( NAMED_UNIT ( * ) SI_UNIT ( $, .STERADIAN. ) SOLID_ANGLE_UNIT ( ) );
#277 = DIRECTION ( 'NONE',  ( -1.000000000000000000, 0.0000000000000000000, 0.0000000000000000000 ) ) ;
#278 = CIRCLE ( 'NONE', #273, 43.14000000000000100 ) ;
#279 = DIRECTION ( 'NONE',  ( -1.000000000000000000, 1.224606353822377300E-016, 0.0000000000000000000 ) ) ;
#280 = CARTESIAN_POINT ( 'NONE',  ( 0.0000000000000000000, 0.0000000000000000000, -43.68413107555106500 ) ) ;
#281 = FILL_AREA_STYLE_COLOUR ( '', #268 ) ;
#282 =( NAMED_UNIT ( * ) PLANE_ANGLE_UNIT ( ) SI_UNIT ( $, .RADIAN. ) );
#283 = DIRECTION ( 'NONE',  ( -1.224606353822377300E-016, -1.000000000000000000, 0.0000000000000000000 ) ) ;
#284 = STYLED_ITEM ( 'NONE', ( #264 ), #49 ) ;
#285 = DIRECTION ( 'NONE',  ( -0.0000000000000000000, -0.0000000000000000000, 1.000000000000000000 ) ) ;
#286 = AXIS2_PLACEMENT_3D ( 'NONE', #240, #285, #274 ) ;
#287 = CARTESIAN_POINT ( 'NONE',  ( 0.0000000000000000000, 0.0000000000000000000, -2.455868924448944200 ) ) ;
#288 = DIRECTION ( 'NONE',  ( -1.000000000000000000, 0.0000000000000000000, 0.0000000000000000000 ) ) ;
#289 = DIRECTION ( 'NONE',  ( 0.0000000000000000000, 1.000000000000000000, 0.0000000000000000000 ) ) ;
#290 = CARTESIAN_POINT ( 'NONE',  ( 0.0000000000000000000, 0.0000000000000000000, -97.54413107555106400 ) ) ;
#291 = CIRCLE ( 'NONE', #300, 12.70000000000000500 ) ;
#292 = CARTESIAN_POINT ( 'NONE',  ( 0.0000000000000000000, 2.641475905194867600E-015, -0.5441310755510686500 ) ) ;
#293 = AXIS2_PLACEMENT_3D ( 'NONE', #290, #288, #289 ) ;
#294 = DIRECTION ( 'NONE',  ( 1.000000000000000000, -0.0000000000000000000, 0.0000000000000000000 ) ) ;
#295 = CARTESIAN_POINT ( 'NONE',  ( 0.0000000000000000000, 0.0000000000000000000, -43.68413107555106500 ) ) ;
#296 = AXIS2_PLACEMENT_3D ( 'NONE', #295, #294, #74 ) ;
#297 = CIRCLE ( 'NONE', #296, 43.14000000000000100 ) ;
#298 = DIRECTION ( 'NONE',  ( 1.000000000000000000, 0.0000000000000000000, 0.0000000000000000000 ) ) ;
#299 = DIRECTION ( 'NONE',  ( -0.0000000000000000000, -0.0000000000000000000, 1.000000000000000000 ) ) ;
#300 = AXIS2_PLACEMENT_3D ( 'NONE', #287, #299, #298 ) ;
#301 = CARTESIAN_POINT ( 'NONE',  ( -1.555250069354420500E-015, -12.70000000000001000, -2.455868924448946000 ) ) ;
#302 = SPHERICAL_SURFACE ( 'NONE', #293, 100.0000000000000000 ) ;
#303 =( LENGTH_UNIT ( ) NAMED_UNIT ( * ) SI_UNIT ( .MILLI., .METRE. ) );
#304 = UNCERTAINTY_MEASURE_WITH_UNIT (LENGTH_MEASURE( 1.000000000000000100E-005 ), #303, 'distance_accuracy_value', 'NONE');
#305 =( NAMED_UNIT ( * ) SI_UNIT ( $, .STERADIAN. ) SOLID_ANGLE_UNIT ( ) );
#306 =( NAMED_UNIT ( * ) PLANE_ANGLE_UNIT ( ) SI_UNIT ( $, .RADIAN. ) );
#307 = DIRECTION ( 'NONE',  ( 0.0000000000000000000, 0.0000000000000000000, 1.000000000000000000 ) ) ;
#308 = AXIS2_PLACEMENT_3D ( 'NONE', #309, #307, #310 ) ;
#309 = CARTESIAN_POINT ( 'NONE',  ( 0.0000000000000000000, 0.0000000000000000000, 0.0000000000000000000 ) ) ;
#310 = DIRECTION ( 'NONE',  ( 1.000000000000000000, 0.0000000000000000000, 0.0000000000000000000 ) ) ;
#311 = PRODUCT_DEFINITION_SHAPE ( 'NONE', 'NONE',  #314 ) ;
#312 = PRODUCT_RELATED_PRODUCT_CATEGORY ( 'part', '', ( #319 ) ) ;
#313 = PRODUCT_DEFINITION_FORMATION_WITH_SPECIFIED_SOURCE ( 'ANY', '', #319, .NOT_KNOWN. ) ;
#314 = PRODUCT_DEFINITION ( 'UNKNOWN', '', #313, #315 ) ;
#315 = PRODUCT_DEFINITION_CONTEXT ( 'detailed design', #317, 'design' ) ;
#316 = APPLICATION_PROTOCOL_DEFINITION ( 'draft international standard', 'automotive_design', 1998, #317 ) ;
#317 = APPLICATION_CONTEXT ( 'automotive_design' ) ;
#318 = SHAPE_DEFINITION_REPRESENTATION ( #311, #72 ) ;
#319 = PRODUCT ( '4907-E0W', '4907-E0W', '', ( #320 ) ) ;
#320 = PRODUCT_CONTEXT ( 'NONE', #322, 'mechanical' ) ;
#321 = APPLICATION_PROTOCOL_DEFINITION ( 'draft international standard', 'automotive_design', 1998, #322 ) ;
#322 = APPLICATION_CONTEXT ( 'automotive_design' ) ;
ENDSEC;
END-ISO-10303-21;
