ISO-10303-21;
HEADER;
FILE_DESCRIPTION (( 'STEP AP203' ),
    '1' );
FILE_NAME ('25004-E0W.STEP',
    '2015-04-28T20:38:54',
    ( 'Admin' ),
    ( '' ),
    'SwSTEP 2.0',
    'SolidWorks 2014',
    '' );
FILE_SCHEMA (( 'CONFIG_CONTROL_DESIGN' ));
ENDSEC;

DATA;
#1 = DIRECTION ( 'NONE',  ( 1.000000000000000000, 0.0000000000000000000, 0.0000000000000000000 ) ) ;
#2 = CC_DESIGN_SECURITY_CLASSIFICATION ( #242, ( #68 ) ) ;
#3 = CARTESIAN_POINT ( 'NONE',  ( 0.0000000000000000000, 0.0000000000000000000, -1.033578643762689300 ) ) ;
#4 = CIRCLE ( 'NONE', #118, 230.0400000007001900 ) ;
#5 = CIRCLE ( 'NONE', #276, 12.55857864376269200 ) ;
#6 = FACE_OUTER_BOUND ( 'NONE', #85, .T. ) ;
#7 = DIRECTION ( 'NONE',  ( -0.0000000000000000000, -0.0000000000000000000, 1.000000000000000000 ) ) ;
#8 = ADVANCED_FACE ( 'NONE', ( #60 ), #285, .T. ) ;
#9 = AXIS2_PLACEMENT_3D ( 'NONE', #211, #297, #52 ) ;
#10 = DIRECTION ( 'NONE',  ( -1.000000000000000000, 0.0000000000000000000, 0.0000000000000000000 ) ) ;
#11 = CARTESIAN_POINT ( 'NONE',  ( 0.0000000000000000000, 0.0000000000000000000, 0.8327664689780911500 ) ) ;
#12 = ADVANCED_FACE ( 'NONE', ( #6 ), #66, .F. ) ;
#13 = CARTESIAN_POINT ( 'NONE',  ( -12.55857864376281800, 1.537982313792444400E-015, 0.8327664689780772700 ) ) ;
#14 = VERTEX_POINT ( 'NONE', #201 ) ;
#15 = ORIENTED_EDGE ( 'NONE', *, *, #205, .F. ) ;
#16 = EDGE_CURVE ( 'NONE', #232, #167, #4, .T. ) ;
#17 = APPLICATION_CONTEXT ( 'configuration controlled 3d designs of mechanical parts and assemblies' ) ;
#18 = CARTESIAN_POINT ( 'NONE',  ( 12.55857864376281800, 0.0000000000000000000, 0.8327664689780772700 ) ) ;
#19 = ORIENTED_EDGE ( 'NONE', *, *, #159, .T. ) ;
#20 = CIRCLE ( 'NONE', #243, 230.0400000007002200 ) ;
#21 = CC_DESIGN_PERSON_AND_ORGANIZATION_ASSIGNMENT ( #81, #63, ( #200 ) ) ;
#22 = DATE_AND_TIME ( #75, #77 ) ;
#23 = PRODUCT_DEFINITION_SHAPE ( 'NONE', 'NONE',  #200 ) ;
#24 = AXIS2_PLACEMENT_3D ( 'NONE', #265, #174, #206 ) ;
#25 = APPROVAL_STATUS ( 'not_yet_approved' ) ;
#26 = EDGE_LOOP ( 'NONE', ( #106, #176, #282, #259 ) ) ;
#27 = EDGE_LOOP ( 'NONE', ( #19, #208, #40 ) ) ;
#28 = ORIENTED_EDGE ( 'NONE', *, *, #182, .F. ) ;
#29 =( NAMED_UNIT ( * ) SI_UNIT ( $, .STERADIAN. ) SOLID_ANGLE_UNIT ( ) );
#30 = ORIENTED_EDGE ( 'NONE', *, *, #269, .T. ) ;
#31 = ORIENTED_EDGE ( 'NONE', *, *, #159, .F. ) ;
#32 = AXIS2_PLACEMENT_3D ( 'NONE', #151, #58, #199 ) ;
#33 = AXIS2_PLACEMENT_3D ( 'NONE', #170, #187, #295 ) ;
#34 = CARTESIAN_POINT ( 'NONE',  ( 0.0000000000000000000, 0.0000000000000000000, 0.6913451127407814800 ) ) ;
#35 = DIRECTION ( 'NONE',  ( -0.0000000000000000000, -0.0000000000000000000, 1.000000000000000000 ) ) ;
#36 = FACE_OUTER_BOUND ( 'NONE', #115, .T. ) ;
#37 = COORDINATED_UNIVERSAL_TIME_OFFSET ( 5, 0, .BEHIND. ) ;
#38 = CYLINDRICAL_SURFACE ( 'NONE', #257, 12.70000000000000100 ) ;
#39 = CC_DESIGN_DATE_AND_TIME_ASSIGNMENT ( #165, #184, ( #242 ) ) ;
#40 = ORIENTED_EDGE ( 'NONE', *, *, #16, .F. ) ;
#41 = DIRECTION ( 'NONE',  ( -0.0000000000000000000, -0.0000000000000000000, 1.000000000000000000 ) ) ;
#42 = APPROVAL_STATUS ( 'not_yet_approved' ) ;
#43 = DIRECTION ( 'NONE',  ( 1.000000000000000000, 0.0000000000000000000, 0.0000000000000000000 ) ) ;
#44 = CIRCLE ( 'NONE', #253, 12.55857864376269200 ) ;
#45 = LINE ( 'NONE', #236, #97 ) ;
#46 = COORDINATED_UNIVERSAL_TIME_OFFSET ( 5, 0, .BEHIND. ) ;
#47 = DIRECTION ( 'NONE',  ( 1.000000000000000000, 0.0000000000000000000, 0.0000000000000000000 ) ) ;
#48 = DESIGN_CONTEXT ( 'detailed design', #229, 'design' ) ;
#49 = AXIS2_PLACEMENT_3D ( 'NONE', #163, #263, #10 ) ;
#50 = ORIENTED_EDGE ( 'NONE', *, *, #262, .T. ) ;
#51 = CIRCLE ( 'NONE', #221, 12.70000000000000100 ) ;
#52 = DIRECTION ( 'NONE',  ( 1.000000000000000000, 0.0000000000000000000, 0.0000000000000000000 ) ) ;
#53 = EDGE_LOOP ( 'NONE', ( #54, #154, #65, #131 ) ) ;
#54 = ORIENTED_EDGE ( 'NONE', *, *, #223, .T. ) ;
#55 = APPROVAL_PERSON_ORGANIZATION ( #130, #241, #61 ) ;
#56 = MECHANICAL_CONTEXT ( 'NONE', #17, 'mechanical' ) ;
#57 = VERTEX_POINT ( 'NONE', #13 ) ;
#58 = DIRECTION ( 'NONE',  ( -0.0000000000000000000, -0.0000000000000000000, 1.000000000000000000 ) ) ;
#59 = AXIS2_PLACEMENT_3D ( 'NONE', #140, #117, #281 ) ;
#60 = FACE_OUTER_BOUND ( 'NONE', #271, .T. ) ;
#61 = APPROVAL_ROLE ( '' ) ;
#62 = DIRECTION ( 'NONE',  ( -0.0000000000000000000, -0.0000000000000000000, 1.000000000000000000 ) ) ;
#63 = PERSON_AND_ORGANIZATION_ROLE ( 'creator' ) ;
#64 = ORIENTED_EDGE ( 'NONE', *, *, #209, .T. ) ;
#65 = ORIENTED_EDGE ( 'NONE', *, *, #143, .F. ) ;
#66 = PLANE ( 'NONE',  #261 ) ;
#67 = APPLICATION_PROTOCOL_DEFINITION ( 'international standard', 'config_control_design', 1994, #229 ) ;
#68 = PRODUCT_DEFINITION_FORMATION_WITH_SPECIFIED_SOURCE ( 'ANY', '', #233, .NOT_KNOWN. ) ;
#69 = VECTOR ( 'NONE', #150, 1000.000000000000000 ) ;
#70 = COORDINATED_UNIVERSAL_TIME_OFFSET ( 5, 0, .BEHIND. ) ;
#71 = AXIS2_PLACEMENT_3D ( 'NONE', #298, #279, #43 ) ;
#72 = DIRECTION ( 'NONE',  ( -0.0000000000000000000, -0.0000000000000000000, 1.000000000000000000 ) ) ;
#73 = CARTESIAN_POINT ( 'NONE',  ( -12.70000000000000100, 1.555301434917138600E-015, -1.033578643762689300 ) ) ;
#74 = ORIENTED_EDGE ( 'NONE', *, *, #287, .T. ) ;
#75 = CALENDAR_DATE ( 2015, 28, 4 ) ;
#76 = CIRCLE ( 'NONE', #9, 12.55857864376269200 ) ;
#77 = LOCAL_TIME ( 16, 38, 54.00000000000000000, #104 ) ;
#78 = PERSON_AND_ORGANIZATION_ROLE ( 'design_owner' ) ;
#79 = VERTEX_POINT ( 'NONE', #138 ) ;
#80 = DIRECTION ( 'NONE',  ( 0.7071067811865474600, 8.659560562354931600E-017, -0.7071067811865475700 ) ) ;
#81 = PERSON_AND_ORGANIZATION ( #186, #178 ) ;
#82 = AXIS2_PLACEMENT_3D ( 'NONE', #34, #169, #114 ) ;
#83 = CC_DESIGN_APPROVAL ( #241, ( #200 ) ) ;
#84 = CARTESIAN_POINT ( 'NONE',  ( 0.0000000000000000000, 0.0000000000000000000, 0.0000000000000000000 ) ) ;
#85 = EDGE_LOOP ( 'NONE', ( #134, #123 ) ) ;
#86 =( NAMED_UNIT ( * ) PLANE_ANGLE_UNIT ( ) SI_UNIT ( $, .RADIAN. ) );
#87 = CARTESIAN_POINT ( 'NONE',  ( 12.70000000000000100, 1.555301434917138600E-015, 0.6913451127407814800 ) ) ;
#88 = VERTEX_POINT ( 'NONE', #73 ) ;
#89 = VERTEX_POINT ( 'NONE', #146 ) ;
#90 = ORIENTED_EDGE ( 'NONE', *, *, #16, .T. ) ;
#91 = VECTOR ( 'NONE', #280, 1000.000000000000000 ) ;
#92 = MANIFOLD_SOLID_BREP ( '25004-001-1-solid1', #122 ) ;
#93 = UNCERTAINTY_MEASURE_WITH_UNIT (LENGTH_MEASURE( 1.000000000000000100E-005 ), #219, 'distance_accuracy_value', 'NONE');
#94 = DIRECTION ( 'NONE',  ( 1.000000000000000000, 0.0000000000000000000, 0.0000000000000000000 ) ) ;
#95 = DIRECTION ( 'NONE',  ( 1.000000000000000000, 0.0000000000000000000, 0.0000000000000000000 ) ) ;
#96 = DIRECTION ( 'NONE',  ( 1.000000000000000000, 0.0000000000000000000, 0.0000000000000000000 ) ) ;
#97 = VECTOR ( 'NONE', #234, 1000.000000000000000 ) ;
#98 = FACE_OUTER_BOUND ( 'NONE', #245, .T. ) ;
#99 = APPROVAL ( #189, 'UNSPECIFIED' ) ;
#100 = LINE ( 'NONE', #87, #137 ) ;
#101 = DIRECTION ( 'NONE',  ( 0.0000000000000000000, 0.0000000000000000000, 1.000000000000000000 ) ) ;
#102 = LINE ( 'NONE', #180, #288 ) ;
#103 = CONICAL_SURFACE ( 'NONE', #49, 12.70000000000000100, 0.7853981633974482800 ) ;
#104 = COORDINATED_UNIVERSAL_TIME_OFFSET ( 5, 0, .BEHIND. ) ;
#105 = DIRECTION ( 'NONE',  ( 1.224646799147353200E-016, 1.000000000000000000, 0.0000000000000000000 ) ) ;
#106 = ORIENTED_EDGE ( 'NONE', *, *, #143, .T. ) ;
#107 = DIRECTION ( 'NONE',  ( -0.0000000000000000000, -0.0000000000000000000, 1.000000000000000000 ) ) ;
#108 = SHAPE_DEFINITION_REPRESENTATION ( #23, #135 ) ;
#109 = ORIENTED_EDGE ( 'NONE', *, *, #290, .F. ) ;
#110 = CARTESIAN_POINT ( 'NONE',  ( 0.0000000000000000000, 0.0000000000000000000, -228.8649995026275700 ) ) ;
#111 = DIRECTION ( 'NONE',  ( 0.0000000000000000000, -0.0000000000000000000, 1.000000000000000000 ) ) ;
#112 = ADVANCED_FACE ( 'NONE', ( #258 ), #103, .T. ) ;
#113 = DATE_AND_TIME ( #222, #144 ) ;
#114 = DIRECTION ( 'NONE',  ( -1.000000000000000000, 0.0000000000000000000, 0.0000000000000000000 ) ) ;
#115 = EDGE_LOOP ( 'NONE', ( #15, #50, #90 ) ) ;
#116 = AXIS2_PLACEMENT_3D ( 'NONE', #158, #149, #47 ) ;
#117 = DIRECTION ( 'NONE',  ( -0.0000000000000000000, -0.0000000000000000000, 1.000000000000000000 ) ) ;
#118 = AXIS2_PLACEMENT_3D ( 'NONE', #160, #164, #202 ) ;
#119 = DIRECTION ( 'NONE',  ( 1.000000000000000000, 0.0000000000000000000, 0.0000000000000000000 ) ) ;
#120 = LOCAL_TIME ( 16, 38, 54.00000000000000000, #155 ) ;
#121 = DATE_AND_TIME ( #212, #275 ) ;
#122 = CLOSED_SHELL ( 'NONE', ( #112, #255, #230, #125, #283, #12, #8, #166, #171 ) ) ;
#123 = ORIENTED_EDGE ( 'NONE', *, *, #209, .F. ) ;
#124 = DIRECTION ( 'NONE',  ( -0.7071067811865474600, 0.0000000000000000000, -0.7071067811865475700 ) ) ;
#125 = ADVANCED_FACE ( 'NONE', ( #278 ), #147, .T. ) ;
#126 = CONICAL_SURFACE ( 'NONE', #185, 12.55857864376269200, 0.7853981633974482800 ) ;
#127 = CC_DESIGN_DATE_AND_TIME_ASSIGNMENT ( #22, #136, ( #200 ) ) ;
#128 = CARTESIAN_POINT ( 'NONE',  ( -12.55857864376269200, 1.537982313792428900E-015, -1.174999999999998900 ) ) ;
#129 = CARTESIAN_POINT ( 'NONE',  ( -0.01513780898269694000, 1.853846931676386000E-018, -228.8649995026275700 ) ) ;
#130 = PERSON_AND_ORGANIZATION ( #186, #178 ) ;
#131 = ORIENTED_EDGE ( 'NONE', *, *, #300, .F. ) ;
#132 = APPROVAL_ROLE ( '' ) ;
#133 = CARTESIAN_POINT ( 'NONE',  ( -12.70000000000000100, 0.0000000000000000000, 0.6913451127407814800 ) ) ;
#134 = ORIENTED_EDGE ( 'NONE', *, *, #223, .F. ) ;
#135 = ADVANCED_BREP_SHAPE_REPRESENTATION ( '25004-E0W', ( #92, #301 ), #292 ) ;
#136 = DATE_TIME_ROLE ( 'creation_date' ) ;
#137 = VECTOR ( 'NONE', #80, 1000.000000000000000 ) ;
#138 = CARTESIAN_POINT ( 'NONE',  ( 12.70000000000000100, 0.0000000000000000000, 0.6913451127407814800 ) ) ;
#139 = APPROVAL_DATE_TIME ( #113, #99 ) ;
#140 = CARTESIAN_POINT ( 'NONE',  ( 0.0000000000000000000, 0.0000000000000000000, 0.6913451127407814800 ) ) ;
#141 = APPROVAL_DATE_TIME ( #121, #241 ) ;
#142 = CALENDAR_DATE ( 2015, 28, 4 ) ;
#143 = EDGE_CURVE ( 'NONE', #260, #88, #240, .T. ) ;
#144 = LOCAL_TIME ( 16, 38, 54.00000000000000000, #37 ) ;
#145 = PERSON_AND_ORGANIZATION ( #186, #178 ) ;
#146 = CARTESIAN_POINT ( 'NONE',  ( -12.70000000000000100, 1.555301434917138600E-015, 0.6913451127407814800 ) ) ;
#147 = TOROIDAL_SURFACE ( 'NONE', #215, 0.01513780898269694000, 230.0400000007002200 ) ;
#148 = CC_DESIGN_PERSON_AND_ORGANIZATION_ASSIGNMENT ( #193, #78, ( #233 ) ) ;
#149 = DIRECTION ( 'NONE',  ( -0.0000000000000000000, -0.0000000000000000000, 1.000000000000000000 ) ) ;
#150 = DIRECTION ( 'NONE',  ( -0.7071067811865474600, 8.659560562354931600E-017, 0.7071067811865475700 ) ) ;
#151 = CARTESIAN_POINT ( 'NONE',  ( 0.0000000000000000000, 0.0000000000000000000, 0.8327664689780911500 ) ) ;
#152 = CARTESIAN_POINT ( 'NONE',  ( 0.0000000000000000000, 0.0000000000000000000, 22.30948260650616900 ) ) ;
#153 = PERSON_AND_ORGANIZATION ( #186, #178 ) ;
#154 = ORIENTED_EDGE ( 'NONE', *, *, #268, .T. ) ;
#155 = COORDINATED_UNIVERSAL_TIME_OFFSET ( 5, 0, .BEHIND. ) ;
#156 = CARTESIAN_POINT ( 'NONE',  ( 0.0000000000000000000, 0.0000000000000000000, -1.175000000000000000 ) ) ;
#157 = EDGE_CURVE ( 'NONE', #260, #79, #102, .T. ) ;
#158 = CARTESIAN_POINT ( 'NONE',  ( 0.0000000000000000000, 0.0000000000000000000, -1.033578643762689300 ) ) ;
#159 = EDGE_CURVE ( 'NONE', #232, #57, #197, .T. ) ;
#160 = CARTESIAN_POINT ( 'NONE',  ( 0.01513780898269694000, 0.0000000000000000000, -228.8649995026275700 ) ) ;
#161 = CC_DESIGN_PERSON_AND_ORGANIZATION_ASSIGNMENT ( #267, #198, ( #68 ) ) ;
#162 = CARTESIAN_POINT ( 'NONE',  ( -12.70000000000000100, 1.555301434917138600E-015, 22.30948260650616900 ) ) ;
#163 = CARTESIAN_POINT ( 'NONE',  ( 0.0000000000000000000, 0.0000000000000000000, 0.6913451127407814800 ) ) ;
#164 = DIRECTION ( 'NONE',  ( 0.0000000000000000000, -1.000000000000000000, 0.0000000000000000000 ) ) ;
#165 = DATE_AND_TIME ( #142, #296 ) ;
#166 = ADVANCED_FACE ( 'NONE', ( #98 ), #38, .T. ) ;
#167 = VERTEX_POINT ( 'NONE', #251 ) ;
#168 = CIRCLE ( 'NONE', #59, 12.70000000000000100 ) ;
#169 = DIRECTION ( 'NONE',  ( 0.0000000000000000000, 0.0000000000000000000, -1.000000000000000000 ) ) ;
#170 = CARTESIAN_POINT ( 'NONE',  ( 0.0000000000000000000, 0.0000000000000000000, 22.30948260650616900 ) ) ;
#171 = ADVANCED_FACE ( 'NONE', ( #183 ), #273, .T. ) ;
#172 = APPROVAL_PERSON_ORGANIZATION ( #153, #173, #289 ) ;
#173 = APPROVAL ( #25, 'UNSPECIFIED' ) ;
#174 = DIRECTION ( 'NONE',  ( -0.0000000000000000000, -0.0000000000000000000, 1.000000000000000000 ) ) ;
#175 = LINE ( 'NONE', #133, #284 ) ;
#176 = ORIENTED_EDGE ( 'NONE', *, *, #182, .T. ) ;
#177 = APPROVAL_PERSON_ORGANIZATION ( #239, #99, #132 ) ;
#178 = ORGANIZATION ( 'UNSPECIFIED', 'UNSPECIFIED', '' ) ;
#179 = SECURITY_CLASSIFICATION_LEVEL ( 'unclassified' ) ;
#180 = CARTESIAN_POINT ( 'NONE',  ( 12.70000000000000100, 0.0000000000000000000, 22.30948260650616900 ) ) ;
#181 = LINE ( 'NONE', #128, #69 ) ;
#182 = EDGE_CURVE ( 'NONE', #88, #89, #210, .T. ) ;
#183 = FACE_OUTER_BOUND ( 'NONE', #226, .T. ) ;
#184 = DATE_TIME_ROLE ( 'classification_date' ) ;
#185 = AXIS2_PLACEMENT_3D ( 'NONE', #188, #72, #228 ) ;
#186 = PERSON ( 'UNSPECIFIED', 'UNSPECIFIED', 'UNSPECIFIED', ('UNSPECIFIED'), ('UNSPECIFIED'), ('UNSPECIFIED') ) ;
#187 = DIRECTION ( 'NONE',  ( -0.0000000000000000000, -0.0000000000000000000, 1.000000000000000000 ) ) ;
#188 = CARTESIAN_POINT ( 'NONE',  ( 0.0000000000000000000, 0.0000000000000000000, -1.174999999999998900 ) ) ;
#189 = APPROVAL_STATUS ( 'not_yet_approved' ) ;
#190 = CC_DESIGN_APPROVAL ( #99, ( #242 ) ) ;
#191 = ORIENTED_EDGE ( 'NONE', *, *, #262, .F. ) ;
#192 = PRODUCT_RELATED_PRODUCT_CATEGORY ( 'detail', '', ( #233 ) ) ;
#193 = PERSON_AND_ORGANIZATION ( #186, #178 ) ;
#194 = ORIENTED_EDGE ( 'NONE', *, *, #269, .F. ) ;
#195 = DIRECTION ( 'NONE',  ( 1.000000000000000000, 0.0000000000000000000, 0.0000000000000000000 ) ) ;
#196 = CARTESIAN_POINT ( 'NONE',  ( 0.0000000000000000000, 0.0000000000000000000, -1.174999999999998900 ) ) ;
#197 = CIRCLE ( 'NONE', #32, 12.55857864376269200 ) ;
#198 = PERSON_AND_ORGANIZATION_ROLE ( 'creator' ) ;
#199 = DIRECTION ( 'NONE',  ( 1.000000000000000000, 0.0000000000000000000, 0.0000000000000000000 ) ) ;
#200 = PRODUCT_DEFINITION ( 'UNKNOWN', '', #68, #48 ) ;
#201 = CARTESIAN_POINT ( 'NONE',  ( 12.55857864376269200, 0.0000000000000000000, -1.174999999999998900 ) ) ;
#202 = DIRECTION ( 'NONE',  ( 0.0000000000000000000, 0.0000000000000000000, -1.000000000000000000 ) ) ;
#203 = EDGE_LOOP ( 'NONE', ( #31, #74, #254, #246 ) ) ;
#204 = PERSON_AND_ORGANIZATION ( #186, #178 ) ;
#205 = EDGE_CURVE ( 'NONE', #57, #167, #20, .T. ) ;
#206 = DIRECTION ( 'NONE',  ( 1.000000000000000000, 0.0000000000000000000, 0.0000000000000000000 ) ) ;
#207 = PERSON_AND_ORGANIZATION_ROLE ( 'classification_officer' ) ;
#208 = ORIENTED_EDGE ( 'NONE', *, *, #205, .T. ) ;
#209 = EDGE_CURVE ( 'NONE', #227, #14, #44, .T. ) ;
#210 = LINE ( 'NONE', #162, #91 ) ;
#211 = CARTESIAN_POINT ( 'NONE',  ( 0.0000000000000000000, 0.0000000000000000000, -1.174999999999998900 ) ) ;
#212 = CALENDAR_DATE ( 2015, 28, 4 ) ;
#213 = CC_DESIGN_APPROVAL ( #173, ( #68 ) ) ;
#214 = ORIENTED_EDGE ( 'NONE', *, *, #268, .F. ) ;
#215 = AXIS2_PLACEMENT_3D ( 'NONE', #220, #216, #274 ) ;
#216 = DIRECTION ( 'NONE',  ( -0.0000000000000000000, -0.0000000000000000000, 1.000000000000000000 ) ) ;
#217 = CC_DESIGN_PERSON_AND_ORGANIZATION_ASSIGNMENT ( #204, #247, ( #68 ) ) ;
#218 = AXIS2_PLACEMENT_3D ( 'NONE', #110, #62, #96 ) ;
#219 =( LENGTH_UNIT ( ) NAMED_UNIT ( * ) SI_UNIT ( .MILLI., .METRE. ) );
#220 = CARTESIAN_POINT ( 'NONE',  ( 0.0000000000000000000, 0.0000000000000000000, -228.8649995026275700 ) ) ;
#221 = AXIS2_PLACEMENT_3D ( 'NONE', #3, #41, #119 ) ;
#222 = CALENDAR_DATE ( 2015, 28, 4 ) ;
#223 = EDGE_CURVE ( 'NONE', #14, #227, #76, .T. ) ;
#224 = CIRCLE ( 'NONE', #71, 12.70000000000000100 ) ;
#225 = CYLINDRICAL_SURFACE ( 'NONE', #33, 12.70000000000000100 ) ;
#226 = EDGE_LOOP ( 'NONE', ( #250, #191, #249, #30 ) ) ;
#227 = VERTEX_POINT ( 'NONE', #291 ) ;
#228 = DIRECTION ( 'NONE',  ( 1.000000000000000000, 0.0000000000000000000, 0.0000000000000000000 ) ) ;
#229 = APPLICATION_CONTEXT ( 'configuration controlled 3d designs of mechanical parts and assemblies' ) ;
#230 = ADVANCED_FACE ( 'NONE', ( #235 ), #126, .T. ) ;
#231 = ORIENTED_EDGE ( 'NONE', *, *, #300, .T. ) ;
#232 = VERTEX_POINT ( 'NONE', #18 ) ;
#233 = PRODUCT ( '25004-E0W', '25004-E0W', '', ( #56 ) ) ;
#234 = DIRECTION ( 'NONE',  ( 0.7071067811865474600, 0.0000000000000000000, 0.7071067811865475700 ) ) ;
#235 = FACE_OUTER_BOUND ( 'NONE', #53, .T. ) ;
#236 = CARTESIAN_POINT ( 'NONE',  ( 12.55857864376269200, 0.0000000000000000000, -1.174999999999998900 ) ) ;
#237 = DIRECTION ( 'NONE',  ( -1.000000000000000000, 1.224646799147353000E-016, 0.0000000000000000000 ) ) ;
#238 = FACE_OUTER_BOUND ( 'NONE', #26, .T. ) ;
#239 = PERSON_AND_ORGANIZATION ( #186, #178 ) ;
#240 = CIRCLE ( 'NONE', #116, 12.70000000000000100 ) ;
#241 = APPROVAL ( #42, 'UNSPECIFIED' ) ;
#242 = SECURITY_CLASSIFICATION ( '', '', #179 ) ;
#243 = AXIS2_PLACEMENT_3D ( 'NONE', #129, #105, #237 ) ;
#244 = CALENDAR_DATE ( 2015, 28, 4 ) ;
#245 = EDGE_LOOP ( 'NONE', ( #28, #277, #299, #194 ) ) ;
#246 = ORIENTED_EDGE ( 'NONE', *, *, #264, .F. ) ;
#247 = PERSON_AND_ORGANIZATION_ROLE ( 'design_supplier' ) ;
#248 = EDGE_CURVE ( 'NONE', #79, #89, #224, .T. ) ;
#249 = ORIENTED_EDGE ( 'NONE', *, *, #264, .T. ) ;
#250 = ORIENTED_EDGE ( 'NONE', *, *, #287, .F. ) ;
#251 = CARTESIAN_POINT ( 'NONE',  ( 0.0000000000000000000, 0.0000000000000000000, 1.175000000000000000 ) ) ;
#252 = CC_DESIGN_PERSON_AND_ORGANIZATION_ASSIGNMENT ( #145, #207, ( #242 ) ) ;
#253 = AXIS2_PLACEMENT_3D ( 'NONE', #196, #266, #1 ) ;
#254 = ORIENTED_EDGE ( 'NONE', *, *, #248, .T. ) ;
#255 = ADVANCED_FACE ( 'NONE', ( #238 ), #225, .T. ) ;
#256 = TOROIDAL_SURFACE ( 'NONE', #218, 0.01513780898269694000, 230.0400000007002200 ) ;
#257 = AXIS2_PLACEMENT_3D ( 'NONE', #152, #7, #95 ) ;
#258 = FACE_OUTER_BOUND ( 'NONE', #203, .T. ) ;
#259 = ORIENTED_EDGE ( 'NONE', *, *, #157, .F. ) ;
#260 = VERTEX_POINT ( 'NONE', #294 ) ;
#261 = AXIS2_PLACEMENT_3D ( 'NONE', #156, #111, #293 ) ;
#262 = EDGE_CURVE ( 'NONE', #57, #232, #5, .T. ) ;
#263 = DIRECTION ( 'NONE',  ( 0.0000000000000000000, 0.0000000000000000000, -1.000000000000000000 ) ) ;
#264 = EDGE_CURVE ( 'NONE', #57, #89, #175, .T. ) ;
#265 = CARTESIAN_POINT ( 'NONE',  ( 0.0000000000000000000, 0.0000000000000000000, -1.174999999999998900 ) ) ;
#266 = DIRECTION ( 'NONE',  ( -0.0000000000000000000, -0.0000000000000000000, 1.000000000000000000 ) ) ;
#267 = PERSON_AND_ORGANIZATION ( #186, #178 ) ;
#268 = EDGE_CURVE ( 'NONE', #227, #88, #181, .T. ) ;
#269 = EDGE_CURVE ( 'NONE', #89, #79, #168, .T. ) ;
#270 = APPROVAL_DATE_TIME ( #286, #173 ) ;
#271 = EDGE_LOOP ( 'NONE', ( #214, #64, #231, #109 ) ) ;
#272 = APPLICATION_PROTOCOL_DEFINITION ( 'international standard', 'config_control_design', 1994, #17 ) ;
#273 = CONICAL_SURFACE ( 'NONE', #82, 12.70000000000000100, 0.7853981633974482800 ) ;
#274 = DIRECTION ( 'NONE',  ( 1.000000000000000000, 0.0000000000000000000, 0.0000000000000000000 ) ) ;
#275 = LOCAL_TIME ( 16, 38, 54.00000000000000000, #70 ) ;
#276 = AXIS2_PLACEMENT_3D ( 'NONE', #11, #107, #195 ) ;
#277 = ORIENTED_EDGE ( 'NONE', *, *, #290, .T. ) ;
#278 = FACE_OUTER_BOUND ( 'NONE', #27, .T. ) ;
#279 = DIRECTION ( 'NONE',  ( -0.0000000000000000000, -0.0000000000000000000, 1.000000000000000000 ) ) ;
#280 = DIRECTION ( 'NONE',  ( -0.0000000000000000000, -0.0000000000000000000, 1.000000000000000000 ) ) ;
#281 = DIRECTION ( 'NONE',  ( 1.000000000000000000, 0.0000000000000000000, 0.0000000000000000000 ) ) ;
#282 = ORIENTED_EDGE ( 'NONE', *, *, #248, .F. ) ;
#283 = ADVANCED_FACE ( 'NONE', ( #36 ), #256, .T. ) ;
#284 = VECTOR ( 'NONE', #124, 1000.000000000000000 ) ;
#285 = CONICAL_SURFACE ( 'NONE', #24, 12.55857864376269200, 0.7853981633974482800 ) ;
#286 = DATE_AND_TIME ( #244, #120 ) ;
#287 = EDGE_CURVE ( 'NONE', #232, #79, #100, .T. ) ;
#288 = VECTOR ( 'NONE', #35, 1000.000000000000000 ) ;
#289 = APPROVAL_ROLE ( '' ) ;
#290 = EDGE_CURVE ( 'NONE', #88, #260, #51, .T. ) ;
#291 = CARTESIAN_POINT ( 'NONE',  ( -12.55857864376269200, 1.546641874354783800E-015, -1.174999999999998900 ) ) ;
#292 =( GEOMETRIC_REPRESENTATION_CONTEXT ( 3 ) GLOBAL_UNCERTAINTY_ASSIGNED_CONTEXT ( ( #93 ) ) GLOBAL_UNIT_ASSIGNED_CONTEXT ( ( #219, #86, #29 ) ) REPRESENTATION_CONTEXT ( 'NONE', 'WORKASPACE' ) );
#293 = DIRECTION ( 'NONE',  ( 1.000000000000000000, 0.0000000000000000000, 0.0000000000000000000 ) ) ;
#294 = CARTESIAN_POINT ( 'NONE',  ( 12.70000000000000100, 0.0000000000000000000, -1.033578643762689300 ) ) ;
#295 = DIRECTION ( 'NONE',  ( 1.000000000000000000, 0.0000000000000000000, 0.0000000000000000000 ) ) ;
#296 = LOCAL_TIME ( 16, 38, 54.00000000000000000, #46 ) ;
#297 = DIRECTION ( 'NONE',  ( -0.0000000000000000000, -0.0000000000000000000, 1.000000000000000000 ) ) ;
#298 = CARTESIAN_POINT ( 'NONE',  ( 0.0000000000000000000, 0.0000000000000000000, 0.6913451127407814800 ) ) ;
#299 = ORIENTED_EDGE ( 'NONE', *, *, #157, .T. ) ;
#300 = EDGE_CURVE ( 'NONE', #14, #260, #45, .T. ) ;
#301 = AXIS2_PLACEMENT_3D ( 'NONE', #84, #101, #94 ) ;
ENDSEC;
END-ISO-10303-21;
