ISO-10303-21;
HEADER;
FILE_DESCRIPTION (( 'STEP AP203' ),
    '1' );
FILE_NAME ('Web Model 39396_39409.step',
    '2018-10-05T20:49:07',
    ( '' ),
    ( '' ),
    'SwSTEP 2.0',
    'SolidWorks 2016',
    '' );
FILE_SCHEMA (( 'CONFIG_CONTROL_DESIGN' ));
ENDSEC;

DATA;
#1 = EDGE_CURVE ( 'NONE', #152, #74, #8, .T. ) ;
#2 = APPROVAL_DATE_TIME ( #56, #134 ) ;
#3 = DATE_TIME_ROLE ( 'classification_date' ) ;
#4 = CALENDAR_DATE ( 2018, 5, 10 ) ;
#5 = APPROVAL_STATUS ( 'not_yet_approved' ) ;
#6 = FACE_OUTER_BOUND ( 'NONE', #112, .T. ) ;
#7 = DIRECTION ( 'NONE',  ( -0.0000000000000000000, -0.0000000000000000000, -1.000000000000000000 ) ) ;
#8 = CIRCLE ( 'NONE', #103, 12.69999999999999900 ) ;
#9 = PRODUCT_DEFINITION_FORMATION_WITH_SPECIFIED_SOURCE ( 'ANY', '', #168, .NOT_KNOWN. ) ;
#10 = PLANE ( 'NONE',  #53 ) ;
#11 = LOCAL_TIME ( 16, 49, 7.000000000000000000, #49 ) ;
#12 = CARTESIAN_POINT ( 'NONE',  ( 0.0000000000000000000, 0.0000000000000000000, 1.000000000000000000 ) ) ;
#13 = VECTOR ( 'NONE', #7, 1000.000000000000000 ) ;
#14 = DIRECTION ( 'NONE',  ( -0.0000000000000000000, -0.0000000000000000000, -1.000000000000000000 ) ) ;
#15 = DATE_AND_TIME ( #159, #32 ) ;
#16 = LOCAL_TIME ( 16, 49, 7.000000000000000000, #41 ) ;
#17 = DIRECTION ( 'NONE',  ( 0.0000000000000000000, 0.0000000000000000000, 1.000000000000000000 ) ) ;
#18 = EDGE_LOOP ( 'NONE', ( #91, #121 ) ) ;
#19 = MANIFOLD_SOLID_BREP ( 'Boss-Extrude1', #105 ) ;
#20 = APPROVAL_STATUS ( 'not_yet_approved' ) ;
#21 = APPLICATION_PROTOCOL_DEFINITION ( 'international standard', 'config_control_design', 1994, #95 ) ;
#22 = APPROVAL_PERSON_ORGANIZATION ( #64, #27, #34 ) ;
#23 =( LENGTH_UNIT ( ) NAMED_UNIT ( * ) SI_UNIT ( .MILLI., .METRE. ) );
#24 = PERSON_AND_ORGANIZATION_ROLE ( 'creator' ) ;
#25 = CARTESIAN_POINT ( 'NONE',  ( 0.0000000000000000000, 0.0000000000000000000, 1.000000000000000000 ) ) ;
#26 = DATE_AND_TIME ( #73, #107 ) ;
#27 = APPROVAL ( #115, 'UNSPECIFIED' ) ;
#28 = ADVANCED_FACE ( 'NONE', ( #6 ), #10, .F. ) ;
#29 = CC_DESIGN_PERSON_AND_ORGANIZATION_ASSIGNMENT ( #90, #24, ( #137 ) ) ;
#30 = APPROVAL_PERSON_ORGANIZATION ( #132, #134, #75 ) ;
#31 = SECURITY_CLASSIFICATION_LEVEL ( 'unclassified' ) ;
#32 = LOCAL_TIME ( 16, 49, 7.000000000000000000, #122 ) ;
#33 = EDGE_LOOP ( 'NONE', ( #43, #38, #79, #50 ) ) ;
#34 = APPROVAL_ROLE ( '' ) ;
#35 = APPROVAL_ROLE ( '' ) ;
#36 = CC_DESIGN_APPROVAL ( #27, ( #40 ) ) ;
#37 = DESIGN_CONTEXT ( 'detailed design', #95, 'design' ) ;
#38 = ORIENTED_EDGE ( 'NONE', *, *, #81, .T. ) ;
#39 = AXIS2_PLACEMENT_3D ( 'NONE', #58, #161, #85 ) ;
#40 = SECURITY_CLASSIFICATION ( '', '', #31 ) ;
#41 = COORDINATED_UNIVERSAL_TIME_OFFSET ( 5, 0, .BEHIND. ) ;
#42 = CARTESIAN_POINT ( 'NONE',  ( 12.69999999999999900, 1.555301434917138400E-015, -1.000000000000000000 ) ) ;
#43 = ORIENTED_EDGE ( 'NONE', *, *, #104, .F. ) ;
#44 = ORGANIZATION ( 'UNSPECIFIED', 'UNSPECIFIED', '' ) ;
#45 = CARTESIAN_POINT ( 'NONE',  ( 0.0000000000000000000, 0.0000000000000000000, 1.000000000000000000 ) ) ;
#46 = DIRECTION ( 'NONE',  ( -0.0000000000000000000, -0.0000000000000000000, -1.000000000000000000 ) ) ;
#47 =( GEOMETRIC_REPRESENTATION_CONTEXT ( 3 ) GLOBAL_UNCERTAINTY_ASSIGNED_CONTEXT ( ( #128 ) ) GLOBAL_UNIT_ASSIGNED_CONTEXT ( ( #23, #130, #145 ) ) REPRESENTATION_CONTEXT ( 'NONE', 'WORKASPACE' ) );
#48 = FACE_OUTER_BOUND ( 'NONE', #18, .T. ) ;
#49 = COORDINATED_UNIVERSAL_TIME_OFFSET ( 5, 0, .BEHIND. ) ;
#50 = ORIENTED_EDGE ( 'NONE', *, *, #136, .F. ) ;
#51 = DIRECTION ( 'NONE',  ( 0.0000000000000000000, 0.0000000000000000000, 1.000000000000000000 ) ) ;
#52 = CC_DESIGN_APPROVAL ( #134, ( #9 ) ) ;
#53 = AXIS2_PLACEMENT_3D ( 'NONE', #160, #108, #89 ) ;
#54 = PERSON_AND_ORGANIZATION ( #87, #44 ) ;
#55 = CARTESIAN_POINT ( 'NONE',  ( -12.69999999999999900, 0.0000000000000000000, 1.000000000000000000 ) ) ;
#56 = DATE_AND_TIME ( #4, #11 ) ;
#57 = VERTEX_POINT ( 'NONE', #133 ) ;
#58 = CARTESIAN_POINT ( 'NONE',  ( 0.0000000000000000000, 0.0000000000000000000, -1.000000000000000000 ) ) ;
#59 = APPROVAL_DATE_TIME ( #139, #126 ) ;
#60 = DIRECTION ( 'NONE',  ( 0.0000000000000000000, 0.0000000000000000000, 1.000000000000000000 ) ) ;
#61 = CARTESIAN_POINT ( 'NONE',  ( 12.69999999999999900, 1.555301434917138400E-015, 1.000000000000000000 ) ) ;
#62 = CARTESIAN_POINT ( 'NONE',  ( 0.0000000000000000000, 0.0000000000000000000, -1.000000000000000000 ) ) ;
#63 = AXIS2_PLACEMENT_3D ( 'NONE', #158, #80, #142 ) ;
#64 = PERSON_AND_ORGANIZATION ( #87, #44 ) ;
#65 = EDGE_CURVE ( 'NONE', #96, #57, #120, .T. ) ;
#66 = APPROVAL_DATE_TIME ( #15, #27 ) ;
#67 = COORDINATED_UNIVERSAL_TIME_OFFSET ( 5, 0, .BEHIND. ) ;
#68 = EDGE_CURVE ( 'NONE', #57, #96, #83, .T. ) ;
#69 = CALENDAR_DATE ( 2018, 5, 10 ) ;
#70 = PRODUCT_RELATED_PRODUCT_CATEGORY ( 'detail', '', ( #168 ) ) ;
#71 = CARTESIAN_POINT ( 'NONE',  ( 0.0000000000000000000, 0.0000000000000000000, 1.000000000000000000 ) ) ;
#72 = PLANE ( 'NONE',  #174 ) ;
#73 = CALENDAR_DATE ( 2018, 5, 10 ) ;
#74 = VERTEX_POINT ( 'NONE', #61 ) ;
#75 = APPROVAL_ROLE ( '' ) ;
#76 = ORIENTED_EDGE ( 'NONE', *, *, #81, .F. ) ;
#77 = PERSON_AND_ORGANIZATION ( #87, #44 ) ;
#78 = PERSON_AND_ORGANIZATION_ROLE ( 'creator' ) ;
#79 = ORIENTED_EDGE ( 'NONE', *, *, #65, .T. ) ;
#80 = DIRECTION ( 'NONE',  ( 0.0000000000000000000, 0.0000000000000000000, 1.000000000000000000 ) ) ;
#81 = EDGE_CURVE ( 'NONE', #74, #96, #151, .T. ) ;
#82 = APPLICATION_CONTEXT ( 'configuration controlled 3d designs of mechanical parts and assemblies' ) ;
#83 = CIRCLE ( 'NONE', #39, 12.69999999999999900 ) ;
#84 = CARTESIAN_POINT ( 'NONE',  ( -12.69999999999999900, 0.0000000000000000000, 1.000000000000000000 ) ) ;
#85 = DIRECTION ( 'NONE',  ( 1.000000000000000000, 0.0000000000000000000, 0.0000000000000000000 ) ) ;
#86 = LOCAL_TIME ( 16, 49, 7.000000000000000000, #155 ) ;
#87 = PERSON ( 'UNSPECIFIED', 'UNSPECIFIED', 'UNSPECIFIED', ('UNSPECIFIED'), ('UNSPECIFIED'), ('UNSPECIFIED') ) ;
#88 = PERSON_AND_ORGANIZATION ( #87, #44 ) ;
#89 = DIRECTION ( 'NONE',  ( 1.000000000000000000, 0.0000000000000000000, -0.0000000000000000000 ) ) ;
#90 = PERSON_AND_ORGANIZATION ( #87, #44 ) ;
#91 = ORIENTED_EDGE ( 'NONE', *, *, #1, .T. ) ;
#92 = CC_DESIGN_PERSON_AND_ORGANIZATION_ASSIGNMENT ( #54, #143, ( #168 ) ) ;
#93 = FACE_OUTER_BOUND ( 'NONE', #94, .T. ) ;
#94 = EDGE_LOOP ( 'NONE', ( #76, #125, #140, #97 ) ) ;
#95 = APPLICATION_CONTEXT ( 'configuration controlled 3d designs of mechanical parts and assemblies' ) ;
#96 = VERTEX_POINT ( 'NONE', #42 ) ;
#97 = ORIENTED_EDGE ( 'NONE', *, *, #68, .T. ) ;
#98 = CC_DESIGN_PERSON_AND_ORGANIZATION_ASSIGNMENT ( #148, #141, ( #40 ) ) ;
#99 = CARTESIAN_POINT ( 'NONE',  ( 12.69999999999999900, 1.555301434917138400E-015, 1.000000000000000000 ) ) ;
#100 = APPROVAL_PERSON_ORGANIZATION ( #88, #126, #35 ) ;
#101 = PERSON_AND_ORGANIZATION ( #87, #44 ) ;
#102 = ORIENTED_EDGE ( 'NONE', *, *, #65, .F. ) ;
#103 = AXIS2_PLACEMENT_3D ( 'NONE', #71, #162, #173 ) ;
#104 = EDGE_CURVE ( 'NONE', #74, #152, #146, .T. ) ;
#105 = CLOSED_SHELL ( 'NONE', ( #150, #135, #163, #28 ) ) ;
#106 = DIRECTION ( 'NONE',  ( 1.000000000000000000, 0.0000000000000000000, -0.0000000000000000000 ) ) ;
#107 = LOCAL_TIME ( 16, 49, 7.000000000000000000, #67 ) ;
#108 = DIRECTION ( 'NONE',  ( 0.0000000000000000000, 0.0000000000000000000, 1.000000000000000000 ) ) ;
#109 = CYLINDRICAL_SURFACE ( 'NONE', #167, 12.69999999999999900 ) ;
#110 = CARTESIAN_POINT ( 'NONE',  ( 0.0000000000000000000, 0.0000000000000000000, 1.000000000000000000 ) ) ;
#111 = LINE ( 'NONE', #84, #13 ) ;
#112 = EDGE_LOOP ( 'NONE', ( #129, #102 ) ) ;
#113 = CC_DESIGN_PERSON_AND_ORGANIZATION_ASSIGNMENT ( #77, #114, ( #9 ) ) ;
#114 = PERSON_AND_ORGANIZATION_ROLE ( 'design_supplier' ) ;
#115 = APPROVAL_STATUS ( 'not_yet_approved' ) ;
#116 = SHAPE_DEFINITION_REPRESENTATION ( #138, #166 ) ;
#117 = AXIS2_PLACEMENT_3D ( 'NONE', #45, #14, #144 ) ;
#118 = CC_DESIGN_APPROVAL ( #126, ( #137 ) ) ;
#119 = FACE_OUTER_BOUND ( 'NONE', #33, .T. ) ;
#120 = CIRCLE ( 'NONE', #169, 12.69999999999999900 ) ;
#121 = ORIENTED_EDGE ( 'NONE', *, *, #104, .T. ) ;
#122 = COORDINATED_UNIVERSAL_TIME_OFFSET ( 5, 0, .BEHIND. ) ;
#123 = DIRECTION ( 'NONE',  ( 1.000000000000000000, 0.0000000000000000000, 0.0000000000000000000 ) ) ;
#124 = DIRECTION ( 'NONE',  ( -1.000000000000000000, 0.0000000000000000000, 0.0000000000000000000 ) ) ;
#125 = ORIENTED_EDGE ( 'NONE', *, *, #1, .F. ) ;
#126 = APPROVAL ( #5, 'UNSPECIFIED' ) ;
#127 = DIRECTION ( 'NONE',  ( 1.000000000000000000, 0.0000000000000000000, 0.0000000000000000000 ) ) ;
#128 = UNCERTAINTY_MEASURE_WITH_UNIT (LENGTH_MEASURE( 1.000000000000000100E-005 ), #23, 'distance_accuracy_value', 'NONE');
#129 = ORIENTED_EDGE ( 'NONE', *, *, #68, .F. ) ;
#130 =( NAMED_UNIT ( * ) PLANE_ANGLE_UNIT ( ) SI_UNIT ( $, .RADIAN. ) );
#131 = AXIS2_PLACEMENT_3D ( 'NONE', #110, #17, #127 ) ;
#132 = PERSON_AND_ORGANIZATION ( #87, #44 ) ;
#133 = CARTESIAN_POINT ( 'NONE',  ( -12.69999999999999900, 0.0000000000000000000, -1.000000000000000000 ) ) ;
#134 = APPROVAL ( #20, 'UNSPECIFIED' ) ;
#135 = ADVANCED_FACE ( 'NONE', ( #93 ), #153, .T. ) ;
#136 = EDGE_CURVE ( 'NONE', #152, #57, #111, .T. ) ;
#137 = PRODUCT_DEFINITION ( 'UNKNOWN', '', #9, #37 ) ;
#138 = PRODUCT_DEFINITION_SHAPE ( 'NONE', 'NONE',  #137 ) ;
#139 = DATE_AND_TIME ( #172, #86 ) ;
#140 = ORIENTED_EDGE ( 'NONE', *, *, #136, .T. ) ;
#141 = PERSON_AND_ORGANIZATION_ROLE ( 'classification_officer' ) ;
#142 = DIRECTION ( 'NONE',  ( 1.000000000000000000, 0.0000000000000000000, 0.0000000000000000000 ) ) ;
#143 = PERSON_AND_ORGANIZATION_ROLE ( 'design_owner' ) ;
#144 = DIRECTION ( 'NONE',  ( -1.000000000000000000, 0.0000000000000000000, 0.0000000000000000000 ) ) ;
#145 =( NAMED_UNIT ( * ) SI_UNIT ( $, .STERADIAN. ) SOLID_ANGLE_UNIT ( ) );
#146 = CIRCLE ( 'NONE', #131, 12.69999999999999900 ) ;
#147 = CC_DESIGN_SECURITY_CLASSIFICATION ( #40, ( #9 ) ) ;
#148 = PERSON_AND_ORGANIZATION ( #87, #44 ) ;
#149 = CC_DESIGN_PERSON_AND_ORGANIZATION_ASSIGNMENT ( #101, #78, ( #9 ) ) ;
#150 = ADVANCED_FACE ( 'NONE', ( #119 ), #109, .T. ) ;
#151 = LINE ( 'NONE', #99, #165 ) ;
#152 = VERTEX_POINT ( 'NONE', #55 ) ;
#153 = CYLINDRICAL_SURFACE ( 'NONE', #117, 12.69999999999999900 ) ;
#154 = DATE_TIME_ROLE ( 'creation_date' ) ;
#155 = COORDINATED_UNIVERSAL_TIME_OFFSET ( 5, 0, .BEHIND. ) ;
#156 = APPLICATION_PROTOCOL_DEFINITION ( 'international standard', 'config_control_design', 1994, #82 ) ;
#157 = CC_DESIGN_DATE_AND_TIME_ASSIGNMENT ( #26, #3, ( #40 ) ) ;
#158 = CARTESIAN_POINT ( 'NONE',  ( 0.0000000000000000000, 0.0000000000000000000, 0.0000000000000000000 ) ) ;
#159 = CALENDAR_DATE ( 2018, 5, 10 ) ;
#160 = CARTESIAN_POINT ( 'NONE',  ( 0.0000000000000000000, 0.0000000000000000000, -1.000000000000000000 ) ) ;
#161 = DIRECTION ( 'NONE',  ( 0.0000000000000000000, 0.0000000000000000000, 1.000000000000000000 ) ) ;
#162 = DIRECTION ( 'NONE',  ( 0.0000000000000000000, 0.0000000000000000000, 1.000000000000000000 ) ) ;
#163 = ADVANCED_FACE ( 'NONE', ( #48 ), #72, .T. ) ;
#164 = CC_DESIGN_DATE_AND_TIME_ASSIGNMENT ( #175, #154, ( #137 ) ) ;
#165 = VECTOR ( 'NONE', #46, 1000.000000000000000 ) ;
#166 = ADVANCED_BREP_SHAPE_REPRESENTATION ( 'Web Model 39396_39409', ( #19, #63 ), #47 ) ;
#167 = AXIS2_PLACEMENT_3D ( 'NONE', #12, #171, #124 ) ;
#168 = PRODUCT ( 'Web Model 39396_39409', 'Web Model 39396_39409', '', ( #170 ) ) ;
#169 = AXIS2_PLACEMENT_3D ( 'NONE', #62, #60, #123 ) ;
#170 = MECHANICAL_CONTEXT ( 'NONE', #82, 'mechanical' ) ;
#171 = DIRECTION ( 'NONE',  ( -0.0000000000000000000, -0.0000000000000000000, -1.000000000000000000 ) ) ;
#172 = CALENDAR_DATE ( 2018, 5, 10 ) ;
#173 = DIRECTION ( 'NONE',  ( 1.000000000000000000, 0.0000000000000000000, 0.0000000000000000000 ) ) ;
#174 = AXIS2_PLACEMENT_3D ( 'NONE', #25, #51, #106 ) ;
#175 = DATE_AND_TIME ( #69, #16 ) ;
ENDSEC;
END-ISO-10303-21;
