ISO-10303-21;
HEADER;
FILE_DESCRIPTION (( 'STEP AP203' ),
    '1' );
FILE_NAME ('Web Model 68807_68815.step',
    '2017-03-06T17:53:35',
    ( '' ),
    ( '' ),
    'SwSTEP 2.0',
    'SolidWorks 2016',
    '' );
FILE_SCHEMA (( 'CONFIG_CONTROL_DESIGN' ));
ENDSEC;

DATA;
#1 = CC_DESIGN_SECURITY_CLASSIFICATION ( #22, ( #47 ) ) ;
#2 = VERTEX_POINT ( 'NONE', #144 ) ;
#3 = CARTESIAN_POINT ( 'NONE',  ( 0.0000000000000000000, 0.0000000000000000000, 0.0000000000000000000 ) ) ;
#4 = DIRECTION ( 'NONE',  ( 1.000000000000000000, 0.0000000000000000000, -0.0000000000000000000 ) ) ;
#5 = CC_DESIGN_APPROVAL ( #9, ( #22 ) ) ;
#6 = CLOSED_SHELL ( 'NONE', ( #32, #112, #84, #148 ) ) ;
#7 = PRODUCT ( 'Web Model 68807_68815', 'Web Model 68807_68815', '', ( #126 ) ) ;
#8 = MANIFOLD_SOLID_BREP ( 'Boss-Extrude1', #6 ) ;
#9 = APPROVAL ( #74, 'UNSPECIFIED' ) ;
#10 = APPLICATION_CONTEXT ( 'configuration controlled 3d designs of mechanical parts and assemblies' ) ;
#11 = APPLICATION_PROTOCOL_DEFINITION ( 'international standard', 'config_control_design', 1994, #136 ) ;
#12 = EDGE_LOOP ( 'NONE', ( #16, #46 ) ) ;
#13 = ORIENTED_EDGE ( 'NONE', *, *, #167, .T. ) ;
#14 = CC_DESIGN_DATE_AND_TIME_ASSIGNMENT ( #162, #139, ( #22 ) ) ;
#15 = DIRECTION ( 'NONE',  ( 0.0000000000000000000, 0.0000000000000000000, 1.000000000000000000 ) ) ;
#16 = ORIENTED_EDGE ( 'NONE', *, *, #141, .T. ) ;
#17 = DIRECTION ( 'NONE',  ( 1.000000000000000000, 0.0000000000000000000, 0.0000000000000000000 ) ) ;
#18 = CC_DESIGN_PERSON_AND_ORGANIZATION_ASSIGNMENT ( #65, #117, ( #22 ) ) ;
#19 = ORIENTED_EDGE ( 'NONE', *, *, #153, .F. ) ;
#20 = DIRECTION ( 'NONE',  ( 1.000000000000000000, 0.0000000000000000000, 0.0000000000000000000 ) ) ;
#21 = DIRECTION ( 'NONE',  ( 0.0000000000000000000, 0.0000000000000000000, 1.000000000000000000 ) ) ;
#22 = SECURITY_CLASSIFICATION ( '', '', #39 ) ;
#23 = CC_DESIGN_PERSON_AND_ORGANIZATION_ASSIGNMENT ( #168, #128, ( #47 ) ) ;
#24 = DIRECTION ( 'NONE',  ( 0.0000000000000000000, 0.0000000000000000000, 1.000000000000000000 ) ) ;
#25 = CARTESIAN_POINT ( 'NONE',  ( 0.0000000000000000000, 0.0000000000000000000, -1.000000000000000000 ) ) ;
#26 = EDGE_LOOP ( 'NONE', ( #19, #45, #40, #145 ) ) ;
#27 = CARTESIAN_POINT ( 'NONE',  ( 0.0000000000000000000, 0.0000000000000000000, 1.000000000000000000 ) ) ;
#28 = LOCAL_TIME ( 12, 53, 35.00000000000000000, #75 ) ;
#29 = FACE_OUTER_BOUND ( 'NONE', #26, .T. ) ;
#30 = CIRCLE ( 'NONE', #108, 12.50000000000000000 ) ;
#31 = CC_DESIGN_PERSON_AND_ORGANIZATION_ASSIGNMENT ( #100, #172, ( #47 ) ) ;
#32 = ADVANCED_FACE ( 'NONE', ( #29 ), #82, .T. ) ;
#33 = EDGE_LOOP ( 'NONE', ( #113, #35, #57, #13 ) ) ;
#34 = ORIENTED_EDGE ( 'NONE', *, *, #146, .F. ) ;
#35 = ORIENTED_EDGE ( 'NONE', *, *, #141, .F. ) ;
#36 = CC_DESIGN_APPROVAL ( #42, ( #47 ) ) ;
#37 = DATE_TIME_ROLE ( 'creation_date' ) ;
#38 = CALENDAR_DATE ( 2017, 6, 3 ) ;
#39 = SECURITY_CLASSIFICATION_LEVEL ( 'unclassified' ) ;
#40 = ORIENTED_EDGE ( 'NONE', *, *, #146, .T. ) ;
#41 = PLANE ( 'NONE',  #116 ) ;
#42 = APPROVAL ( #138, 'UNSPECIFIED' ) ;
#43 = DIRECTION ( 'NONE',  ( 1.000000000000000000, 0.0000000000000000000, 0.0000000000000000000 ) ) ;
#44 = DIRECTION ( 'NONE',  ( 0.0000000000000000000, 0.0000000000000000000, 1.000000000000000000 ) ) ;
#45 = ORIENTED_EDGE ( 'NONE', *, *, #134, .T. ) ;
#46 = ORIENTED_EDGE ( 'NONE', *, *, #153, .T. ) ;
#47 = PRODUCT_DEFINITION_FORMATION_WITH_SPECIFIED_SOURCE ( 'ANY', '', #7, .NOT_KNOWN. ) ;
#48 = DATE_AND_TIME ( #164, #28 ) ;
#49 = AXIS2_PLACEMENT_3D ( 'NONE', #3, #99, #165 ) ;
#50 = EDGE_LOOP ( 'NONE', ( #62, #34 ) ) ;
#51 =( LENGTH_UNIT ( ) NAMED_UNIT ( * ) SI_UNIT ( .MILLI., .METRE. ) );
#52 = APPROVAL ( #154, 'UNSPECIFIED' ) ;
#53 = APPROVAL_DATE_TIME ( #66, #52 ) ;
#54 = UNCERTAINTY_MEASURE_WITH_UNIT (LENGTH_MEASURE( 1.000000000000000100E-005 ), #51, 'distance_accuracy_value', 'NONE');
#55 = CARTESIAN_POINT ( 'NONE',  ( 0.0000000000000000000, 0.0000000000000000000, 1.000000000000000000 ) ) ;
#56 = CC_DESIGN_PERSON_AND_ORGANIZATION_ASSIGNMENT ( #80, #72, ( #95 ) ) ;
#57 = ORIENTED_EDGE ( 'NONE', *, *, #137, .T. ) ;
#58 = VERTEX_POINT ( 'NONE', #131 ) ;
#59 = PERSON_AND_ORGANIZATION ( #169, #109 ) ;
#60 = CARTESIAN_POINT ( 'NONE',  ( 0.0000000000000000000, 0.0000000000000000000, 1.000000000000000000 ) ) ;
#61 = CC_DESIGN_APPROVAL ( #52, ( #95 ) ) ;
#62 = ORIENTED_EDGE ( 'NONE', *, *, #167, .F. ) ;
#63 = CC_DESIGN_PERSON_AND_ORGANIZATION_ASSIGNMENT ( #59, #68, ( #7 ) ) ;
#64 = LINE ( 'NONE', #107, #85 ) ;
#65 = PERSON_AND_ORGANIZATION ( #169, #109 ) ;
#66 = DATE_AND_TIME ( #174, #149 ) ;
#67 = CIRCLE ( 'NONE', #70, 12.50000000000000000 ) ;
#68 = PERSON_AND_ORGANIZATION_ROLE ( 'design_owner' ) ;
#69 = APPROVAL_ROLE ( '' ) ;
#70 = AXIS2_PLACEMENT_3D ( 'NONE', #55, #44, #43 ) ;
#71 = APPLICATION_PROTOCOL_DEFINITION ( 'international standard', 'config_control_design', 1994, #10 ) ;
#72 = PERSON_AND_ORGANIZATION_ROLE ( 'creator' ) ;
#73 = APPROVAL_PERSON_ORGANIZATION ( #81, #9, #69 ) ;
#74 = APPROVAL_STATUS ( 'not_yet_approved' ) ;
#75 = COORDINATED_UNIVERSAL_TIME_OFFSET ( 5, 0, .BEHIND. ) ;
#76 = LINE ( 'NONE', #104, #127 ) ;
#77 = FACE_OUTER_BOUND ( 'NONE', #12, .T. ) ;
#78 = CALENDAR_DATE ( 2017, 6, 3 ) ;
#79 = CARTESIAN_POINT ( 'NONE',  ( 0.0000000000000000000, 0.0000000000000000000, -1.000000000000000000 ) ) ;
#80 = PERSON_AND_ORGANIZATION ( #169, #109 ) ;
#81 = PERSON_AND_ORGANIZATION ( #169, #109 ) ;
#82 = CYLINDRICAL_SURFACE ( 'NONE', #88, 12.50000000000000000 ) ;
#83 = AXIS2_PLACEMENT_3D ( 'NONE', #132, #121, #110 ) ;
#84 = ADVANCED_FACE ( 'NONE', ( #77 ), #142, .T. ) ;
#85 = VECTOR ( 'NONE', #118, 1000.000000000000000 ) ;
#86 = VERTEX_POINT ( 'NONE', #163 ) ;
#87 = ADVANCED_BREP_SHAPE_REPRESENTATION ( 'Web Model 68807_68815', ( #8, #49 ), #103 ) ;
#88 = AXIS2_PLACEMENT_3D ( 'NONE', #60, #157, #161 ) ;
#89 = DIRECTION ( 'NONE',  ( -0.0000000000000000000, -0.0000000000000000000, -1.000000000000000000 ) ) ;
#90 = CARTESIAN_POINT ( 'NONE',  ( -12.50000000000000000, 0.0000000000000000000, -1.000000000000000000 ) ) ;
#91 = FACE_OUTER_BOUND ( 'NONE', #33, .T. ) ;
#92 = CYLINDRICAL_SURFACE ( 'NONE', #83, 12.50000000000000000 ) ;
#93 = CC_DESIGN_DATE_AND_TIME_ASSIGNMENT ( #119, #37, ( #95 ) ) ;
#94 = DATE_AND_TIME ( #78, #123 ) ;
#95 = PRODUCT_DEFINITION ( 'UNKNOWN', '', #47, #160 ) ;
#96 = APPROVAL_DATE_TIME ( #48, #42 ) ;
#97 =( NAMED_UNIT ( * ) SI_UNIT ( $, .STERADIAN. ) SOLID_ANGLE_UNIT ( ) );
#98 = APPROVAL_ROLE ( '' ) ;
#99 = DIRECTION ( 'NONE',  ( 0.0000000000000000000, 0.0000000000000000000, 1.000000000000000000 ) ) ;
#100 = PERSON_AND_ORGANIZATION ( #169, #109 ) ;
#101 = DIRECTION ( 'NONE',  ( 0.0000000000000000000, 0.0000000000000000000, 1.000000000000000000 ) ) ;
#102 = COORDINATED_UNIVERSAL_TIME_OFFSET ( 5, 0, .BEHIND. ) ;
#103 =( GEOMETRIC_REPRESENTATION_CONTEXT ( 3 ) GLOBAL_UNCERTAINTY_ASSIGNED_CONTEXT ( ( #54 ) ) GLOBAL_UNIT_ASSIGNED_CONTEXT ( ( #51, #135, #97 ) ) REPRESENTATION_CONTEXT ( 'NONE', 'WORKASPACE' ) );
#104 = CARTESIAN_POINT ( 'NONE',  ( -12.50000000000000000, 0.0000000000000000000, 1.000000000000000000 ) ) ;
#105 = FACE_OUTER_BOUND ( 'NONE', #50, .T. ) ;
#106 = PRODUCT_RELATED_PRODUCT_CATEGORY ( 'detail', '', ( #7 ) ) ;
#107 = CARTESIAN_POINT ( 'NONE',  ( 12.50000000000000000, 1.530808498934191500E-015, 1.000000000000000000 ) ) ;
#108 = AXIS2_PLACEMENT_3D ( 'NONE', #140, #101, #158 ) ;
#109 = ORGANIZATION ( 'UNSPECIFIED', 'UNSPECIFIED', '' ) ;
#110 = DIRECTION ( 'NONE',  ( -1.000000000000000000, 0.0000000000000000000, 0.0000000000000000000 ) ) ;
#111 = CIRCLE ( 'NONE', #122, 12.50000000000000000 ) ;
#112 = ADVANCED_FACE ( 'NONE', ( #91 ), #92, .T. ) ;
#113 = ORIENTED_EDGE ( 'NONE', *, *, #134, .F. ) ;
#114 = SHAPE_DEFINITION_REPRESENTATION ( #129, #87 ) ;
#115 = COORDINATED_UNIVERSAL_TIME_OFFSET ( 5, 0, .BEHIND. ) ;
#116 = AXIS2_PLACEMENT_3D ( 'NONE', #79, #15, #4 ) ;
#117 = PERSON_AND_ORGANIZATION_ROLE ( 'classification_officer' ) ;
#118 = DIRECTION ( 'NONE',  ( -0.0000000000000000000, -0.0000000000000000000, -1.000000000000000000 ) ) ;
#119 = DATE_AND_TIME ( #166, #170 ) ;
#120 = APPROVAL_PERSON_ORGANIZATION ( #147, #52, #173 ) ;
#121 = DIRECTION ( 'NONE',  ( -0.0000000000000000000, -0.0000000000000000000, -1.000000000000000000 ) ) ;
#122 = AXIS2_PLACEMENT_3D ( 'NONE', #152, #21, #20 ) ;
#123 = LOCAL_TIME ( 12, 53, 35.00000000000000000, #102 ) ;
#124 = DIRECTION ( 'NONE',  ( 1.000000000000000000, 0.0000000000000000000, -0.0000000000000000000 ) ) ;
#125 = PERSON_AND_ORGANIZATION ( #169, #109 ) ;
#126 = MECHANICAL_CONTEXT ( 'NONE', #136, 'mechanical' ) ;
#127 = VECTOR ( 'NONE', #89, 1000.000000000000000 ) ;
#128 = PERSON_AND_ORGANIZATION_ROLE ( 'design_supplier' ) ;
#129 = PRODUCT_DEFINITION_SHAPE ( 'NONE', 'NONE',  #95 ) ;
#130 = DIRECTION ( 'NONE',  ( 0.0000000000000000000, 0.0000000000000000000, 1.000000000000000000 ) ) ;
#131 = CARTESIAN_POINT ( 'NONE',  ( 12.50000000000000000, 1.530808498934191500E-015, -1.000000000000000000 ) ) ;
#132 = CARTESIAN_POINT ( 'NONE',  ( 0.0000000000000000000, 0.0000000000000000000, 1.000000000000000000 ) ) ;
#133 = APPROVAL_DATE_TIME ( #94, #9 ) ;
#134 = EDGE_CURVE ( 'NONE', #2, #58, #64, .T. ) ;
#135 =( NAMED_UNIT ( * ) PLANE_ANGLE_UNIT ( ) SI_UNIT ( $, .RADIAN. ) );
#136 = APPLICATION_CONTEXT ( 'configuration controlled 3d designs of mechanical parts and assemblies' ) ;
#137 = EDGE_CURVE ( 'NONE', #86, #150, #76, .T. ) ;
#138 = APPROVAL_STATUS ( 'not_yet_approved' ) ;
#139 = DATE_TIME_ROLE ( 'classification_date' ) ;
#140 = CARTESIAN_POINT ( 'NONE',  ( 0.0000000000000000000, 0.0000000000000000000, 1.000000000000000000 ) ) ;
#141 = EDGE_CURVE ( 'NONE', #86, #2, #67, .T. ) ;
#142 = PLANE ( 'NONE',  #159 ) ;
#143 = CIRCLE ( 'NONE', #175, 12.50000000000000000 ) ;
#144 = CARTESIAN_POINT ( 'NONE',  ( 12.50000000000000000, 1.530808498934191500E-015, 1.000000000000000000 ) ) ;
#145 = ORIENTED_EDGE ( 'NONE', *, *, #137, .F. ) ;
#146 = EDGE_CURVE ( 'NONE', #58, #150, #143, .T. ) ;
#147 = PERSON_AND_ORGANIZATION ( #169, #109 ) ;
#148 = ADVANCED_FACE ( 'NONE', ( #105 ), #41, .F. ) ;
#149 = LOCAL_TIME ( 12, 53, 35.00000000000000000, #115 ) ;
#150 = VERTEX_POINT ( 'NONE', #90 ) ;
#151 = COORDINATED_UNIVERSAL_TIME_OFFSET ( 5, 0, .BEHIND. ) ;
#152 = CARTESIAN_POINT ( 'NONE',  ( 0.0000000000000000000, 0.0000000000000000000, -1.000000000000000000 ) ) ;
#153 = EDGE_CURVE ( 'NONE', #2, #86, #30, .T. ) ;
#154 = APPROVAL_STATUS ( 'not_yet_approved' ) ;
#155 = LOCAL_TIME ( 12, 53, 35.00000000000000000, #151 ) ;
#156 = APPROVAL_PERSON_ORGANIZATION ( #125, #42, #98 ) ;
#157 = DIRECTION ( 'NONE',  ( -0.0000000000000000000, -0.0000000000000000000, -1.000000000000000000 ) ) ;
#158 = DIRECTION ( 'NONE',  ( 1.000000000000000000, 0.0000000000000000000, 0.0000000000000000000 ) ) ;
#159 = AXIS2_PLACEMENT_3D ( 'NONE', #27, #130, #124 ) ;
#160 = DESIGN_CONTEXT ( 'detailed design', #10, 'design' ) ;
#161 = DIRECTION ( 'NONE',  ( -1.000000000000000000, 0.0000000000000000000, 0.0000000000000000000 ) ) ;
#162 = DATE_AND_TIME ( #38, #155 ) ;
#163 = CARTESIAN_POINT ( 'NONE',  ( -12.50000000000000000, 0.0000000000000000000, 1.000000000000000000 ) ) ;
#164 = CALENDAR_DATE ( 2017, 6, 3 ) ;
#165 = DIRECTION ( 'NONE',  ( 1.000000000000000000, 0.0000000000000000000, 0.0000000000000000000 ) ) ;
#166 = CALENDAR_DATE ( 2017, 6, 3 ) ;
#167 = EDGE_CURVE ( 'NONE', #150, #58, #111, .T. ) ;
#168 = PERSON_AND_ORGANIZATION ( #169, #109 ) ;
#169 = PERSON ( 'UNSPECIFIED', 'UNSPECIFIED', 'UNSPECIFIED', ('UNSPECIFIED'), ('UNSPECIFIED'), ('UNSPECIFIED') ) ;
#170 = LOCAL_TIME ( 12, 53, 35.00000000000000000, #171 ) ;
#171 = COORDINATED_UNIVERSAL_TIME_OFFSET ( 5, 0, .BEHIND. ) ;
#172 = PERSON_AND_ORGANIZATION_ROLE ( 'creator' ) ;
#173 = APPROVAL_ROLE ( '' ) ;
#174 = CALENDAR_DATE ( 2017, 6, 3 ) ;
#175 = AXIS2_PLACEMENT_3D ( 'NONE', #25, #24, #17 ) ;
ENDSEC;
END-ISO-10303-21;
