ISO-10303-21;
HEADER;
FILE_DESCRIPTION (( 'STEP AP203' ),
    '1' );
FILE_NAME ('Web Model 84463.STEP',
    '2017-02-01T15:45:55',
    ( '' ),
    ( '' ),
    'SwSTEP 2.0',
    'SolidWorks 2016',
    '' );
FILE_SCHEMA (( 'CONFIG_CONTROL_DESIGN' ));
ENDSEC;

DATA;
#1 = SECURITY_CLASSIFICATION_LEVEL ( 'unclassified' ) ;
#2 = EDGE_CURVE ( 'NONE', #124, #155, #135, .T. ) ;
#3 = ORIENTED_EDGE ( 'NONE', *, *, #2, .T. ) ;
#4 = CARTESIAN_POINT ( 'NONE',  ( 0.0000000000000000000, 0.0000000000000000000, -2.000000000000000000 ) ) ;
#5 = COORDINATED_UNIVERSAL_TIME_OFFSET ( 5, 0, .BEHIND. ) ;
#6 = COORDINATED_UNIVERSAL_TIME_OFFSET ( 5, 0, .BEHIND. ) ;
#7 = ORIENTED_EDGE ( 'NONE', *, *, #2, .F. ) ;
#8 = DESIGN_CONTEXT ( 'detailed design', #97, 'design' ) ;
#9 = CALENDAR_DATE ( 2017, 1, 2 ) ;
#10 = APPROVAL_PERSON_ORGANIZATION ( #74, #84, #12 ) ;
#11 = SECURITY_CLASSIFICATION ( '', '', #1 ) ;
#12 = APPROVAL_ROLE ( '' ) ;
#13 = APPLICATION_CONTEXT ( 'configuration controlled 3d designs of mechanical parts and assemblies' ) ;
#14 = DIRECTION ( 'NONE',  ( 0.0000000000000000000, 0.0000000000000000000, 1.000000000000000000 ) ) ;
#15 = DIRECTION ( 'NONE',  ( 0.0000000000000000000, 0.0000000000000000000, 1.000000000000000000 ) ) ;
#16 = CC_DESIGN_PERSON_AND_ORGANIZATION_ASSIGNMENT ( #44, #113, ( #173 ) ) ;
#17 = ORIENTED_EDGE ( 'NONE', *, *, #60, .F. ) ;
#18 = DIRECTION ( 'NONE',  ( 0.0000000000000000000, 0.0000000000000000000, 1.000000000000000000 ) ) ;
#19 = CLOSED_SHELL ( 'NONE', ( #106, #151, #164, #120 ) ) ;
#20 = COORDINATED_UNIVERSAL_TIME_OFFSET ( 5, 0, .BEHIND. ) ;
#21 = EDGE_LOOP ( 'NONE', ( #78, #87, #137, #45 ) ) ;
#22 = EDGE_LOOP ( 'NONE', ( #31, #3 ) ) ;
#23 = PERSON ( 'UNSPECIFIED', 'UNSPECIFIED', 'UNSPECIFIED', ('UNSPECIFIED'), ('UNSPECIFIED'), ('UNSPECIFIED') ) ;
#24 =( LENGTH_UNIT ( ) NAMED_UNIT ( * ) SI_UNIT ( .MILLI., .METRE. ) );
#25 = ORIENTED_EDGE ( 'NONE', *, *, #60, .T. ) ;
#26 = APPLICATION_PROTOCOL_DEFINITION ( 'international standard', 'config_control_design', 1994, #13 ) ;
#27 = APPLICATION_PROTOCOL_DEFINITION ( 'international standard', 'config_control_design', 1994, #97 ) ;
#28 = COORDINATED_UNIVERSAL_TIME_OFFSET ( 5, 0, .BEHIND. ) ;
#29 = CARTESIAN_POINT ( 'NONE',  ( -7.500000000000000000, 9.184850993605147900E-016, -2.000000000000000000 ) ) ;
#30 = DIRECTION ( 'NONE',  ( 1.000000000000000000, 0.0000000000000000000, 0.0000000000000000000 ) ) ;
#31 = ORIENTED_EDGE ( 'NONE', *, *, #149, .T. ) ;
#32 = CIRCLE ( 'NONE', #139, 7.500000000000000000 ) ;
#33 = PERSON_AND_ORGANIZATION ( #23, #126 ) ;
#34 = APPROVAL_DATE_TIME ( #172, #84 ) ;
#35 = CIRCLE ( 'NONE', #80, 7.500000000000000000 ) ;
#36 = APPROVAL_ROLE ( '' ) ;
#37 = VERTEX_POINT ( 'NONE', #77 ) ;
#38 = DIRECTION ( 'NONE',  ( 1.000000000000000000, 0.0000000000000000000, 0.0000000000000000000 ) ) ;
#39 = VERTEX_POINT ( 'NONE', #48 ) ;
#40 = DIRECTION ( 'NONE',  ( 0.0000000000000000000, 0.0000000000000000000, 1.000000000000000000 ) ) ;
#41 = PERSON_AND_ORGANIZATION ( #23, #126 ) ;
#42 = MANIFOLD_SOLID_BREP ( 'Extrude1', #19 ) ;
#43 = ORIENTED_EDGE ( 'NONE', *, *, #136, .F. ) ;
#44 = PERSON_AND_ORGANIZATION ( #23, #126 ) ;
#45 = ORIENTED_EDGE ( 'NONE', *, *, #168, .F. ) ;
#46 = APPROVAL_PERSON_ORGANIZATION ( #83, #134, #36 ) ;
#47 = DIRECTION ( 'NONE',  ( 1.000000000000000000, 0.0000000000000000000, 0.0000000000000000000 ) ) ;
#48 = CARTESIAN_POINT ( 'NONE',  ( 7.500000000000000000, 0.0000000000000000000, -2.000000000000000000 ) ) ;
#49 = DIRECTION ( 'NONE',  ( 0.0000000000000000000, 0.0000000000000000000, 1.000000000000000000 ) ) ;
#50 = ADVANCED_BREP_SHAPE_REPRESENTATION ( 'Web Model 84463', ( #42, #79 ), #118 ) ;
#51 = DIRECTION ( 'NONE',  ( 0.0000000000000000000, 0.0000000000000000000, 1.000000000000000000 ) ) ;
#52 = CALENDAR_DATE ( 2017, 1, 2 ) ;
#53 = CC_DESIGN_PERSON_AND_ORGANIZATION_ASSIGNMENT ( #69, #174, ( #169 ) ) ;
#54 = APPROVAL_DATE_TIME ( #167, #134 ) ;
#55 = EDGE_CURVE ( 'NONE', #39, #37, #35, .T. ) ;
#56 = UNCERTAINTY_MEASURE_WITH_UNIT (LENGTH_MEASURE( 1.000000000000000100E-005 ), #24, 'distance_accuracy_value', 'NONE');
#57 = DATE_AND_TIME ( #133, #91 ) ;
#58 = CIRCLE ( 'NONE', #107, 7.500000000000000000 ) ;
#59 = CALENDAR_DATE ( 2017, 1, 2 ) ;
#60 = EDGE_CURVE ( 'NONE', #37, #39, #32, .T. ) ;
#61 = CARTESIAN_POINT ( 'NONE',  ( 0.0000000000000000000, 0.0000000000000000000, 0.0000000000000000000 ) ) ;
#62 = DIRECTION ( 'NONE',  ( 1.000000000000000000, 0.0000000000000000000, 0.0000000000000000000 ) ) ;
#63 = AXIS2_PLACEMENT_3D ( 'NONE', #4, #18, #30 ) ;
#64 = DIRECTION ( 'NONE',  ( 0.0000000000000000000, 0.0000000000000000000, 1.000000000000000000 ) ) ;
#65 = DIRECTION ( 'NONE',  ( 1.000000000000000000, 0.0000000000000000000, -0.0000000000000000000 ) ) ;
#66 = CARTESIAN_POINT ( 'NONE',  ( 7.500000000000000000, 0.0000000000000000000, -2.000000000000000000 ) ) ;
#67 = LINE ( 'NONE', #66, #93 ) ;
#68 = APPROVAL ( #76, 'UNSPECIFIED' ) ;
#69 = PERSON_AND_ORGANIZATION ( #23, #126 ) ;
#70 = AXIS2_PLACEMENT_3D ( 'NONE', #158, #15, #38 ) ;
#71 = PRODUCT_DEFINITION ( 'UNKNOWN', '', #173, #8 ) ;
#72 = CYLINDRICAL_SURFACE ( 'NONE', #90, 7.500000000000000000 ) ;
#73 = APPROVAL_ROLE ( '' ) ;
#74 = PERSON_AND_ORGANIZATION ( #23, #126 ) ;
#75 = CC_DESIGN_APPROVAL ( #134, ( #11 ) ) ;
#76 = APPROVAL_STATUS ( 'not_yet_approved' ) ;
#77 = CARTESIAN_POINT ( 'NONE',  ( -7.500000000000000000, 9.184850993605147900E-016, -2.000000000000000000 ) ) ;
#78 = ORIENTED_EDGE ( 'NONE', *, *, #55, .T. ) ;
#79 = AXIS2_PLACEMENT_3D ( 'NONE', #88, #114, #95 ) ;
#80 = AXIS2_PLACEMENT_3D ( 'NONE', #146, #130, #62 ) ;
#81 = CC_DESIGN_PERSON_AND_ORGANIZATION_ASSIGNMENT ( #92, #171, ( #173 ) ) ;
#82 = LOCAL_TIME ( 10, 45, 55.00000000000000000, #109 ) ;
#83 = PERSON_AND_ORGANIZATION ( #23, #126 ) ;
#84 = APPROVAL ( #127, 'UNSPECIFIED' ) ;
#85 = CALENDAR_DATE ( 2017, 1, 2 ) ;
#86 = DIRECTION ( 'NONE',  ( 0.0000000000000000000, 0.0000000000000000000, 1.000000000000000000 ) ) ;
#87 = ORIENTED_EDGE ( 'NONE', *, *, #136, .T. ) ;
#88 = CARTESIAN_POINT ( 'NONE',  ( 0.0000000000000000000, 0.0000000000000000000, 0.0000000000000000000 ) ) ;
#89 = DIRECTION ( 'NONE',  ( 0.0000000000000000000, 0.0000000000000000000, 1.000000000000000000 ) ) ;
#90 = AXIS2_PLACEMENT_3D ( 'NONE', #145, #14, #47 ) ;
#91 = LOCAL_TIME ( 10, 45, 55.00000000000000000, #5 ) ;
#92 = PERSON_AND_ORGANIZATION ( #23, #126 ) ;
#93 = VECTOR ( 'NONE', #64, 1000.000000000000000 ) ;
#94 =( NAMED_UNIT ( * ) PLANE_ANGLE_UNIT ( ) SI_UNIT ( $, .RADIAN. ) );
#95 = DIRECTION ( 'NONE',  ( 1.000000000000000000, 0.0000000000000000000, 0.0000000000000000000 ) ) ;
#96 = DATE_TIME_ROLE ( 'classification_date' ) ;
#97 = APPLICATION_CONTEXT ( 'configuration controlled 3d designs of mechanical parts and assemblies' ) ;
#98 = DATE_AND_TIME ( #59, #82 ) ;
#99 = AXIS2_PLACEMENT_3D ( 'NONE', #61, #86, #161 ) ;
#100 = CYLINDRICAL_SURFACE ( 'NONE', #63, 7.500000000000000000 ) ;
#101 = CARTESIAN_POINT ( 'NONE',  ( -7.500000000000000000, 9.184850993605147900E-016, 0.0000000000000000000 ) ) ;
#102 = CC_DESIGN_SECURITY_CLASSIFICATION ( #11, ( #173 ) ) ;
#103 = PLANE ( 'NONE',  #110 ) ;
#104 = DIRECTION ( 'NONE',  ( 1.000000000000000000, 0.0000000000000000000, 0.0000000000000000000 ) ) ;
#105 = CARTESIAN_POINT ( 'NONE',  ( 0.0000000000000000000, 0.0000000000000000000, 0.0000000000000000000 ) ) ;
#106 = ADVANCED_FACE ( 'NONE', ( #143 ), #72, .T. ) ;
#107 = AXIS2_PLACEMENT_3D ( 'NONE', #105, #40, #104 ) ;
#108 = FACE_OUTER_BOUND ( 'NONE', #165, .T. ) ;
#109 = COORDINATED_UNIVERSAL_TIME_OFFSET ( 5, 0, .BEHIND. ) ;
#110 = AXIS2_PLACEMENT_3D ( 'NONE', #121, #89, #65 ) ;
#111 = LOCAL_TIME ( 10, 45, 55.00000000000000000, #28 ) ;
#112 =( NAMED_UNIT ( * ) SI_UNIT ( $, .STERADIAN. ) SOLID_ANGLE_UNIT ( ) );
#113 = PERSON_AND_ORGANIZATION_ROLE ( 'design_supplier' ) ;
#114 = DIRECTION ( 'NONE',  ( 0.0000000000000000000, 0.0000000000000000000, 1.000000000000000000 ) ) ;
#115 = ORIENTED_EDGE ( 'NONE', *, *, #168, .T. ) ;
#116 = PLANE ( 'NONE',  #99 ) ;
#117 = APPROVAL_DATE_TIME ( #57, #68 ) ;
#118 =( GEOMETRIC_REPRESENTATION_CONTEXT ( 3 ) GLOBAL_UNCERTAINTY_ASSIGNED_CONTEXT ( ( #56 ) ) GLOBAL_UNIT_ASSIGNED_CONTEXT ( ( #24, #94, #112 ) ) REPRESENTATION_CONTEXT ( 'NONE', 'WORKASPACE' ) );
#119 = SHAPE_DEFINITION_REPRESENTATION ( #125, #50 ) ;
#120 = ADVANCED_FACE ( 'NONE', ( #132 ), #116, .T. ) ;
#121 = CARTESIAN_POINT ( 'NONE',  ( 0.0000000000000000000, 0.0000000000000000000, -2.000000000000000000 ) ) ;
#122 = CARTESIAN_POINT ( 'NONE',  ( 7.500000000000000000, 0.0000000000000000000, 0.0000000000000000000 ) ) ;
#123 = CC_DESIGN_PERSON_AND_ORGANIZATION_ASSIGNMENT ( #41, #175, ( #11 ) ) ;
#124 = VERTEX_POINT ( 'NONE', #101 ) ;
#125 = PRODUCT_DEFINITION_SHAPE ( 'NONE', 'NONE',  #71 ) ;
#126 = ORGANIZATION ( 'UNSPECIFIED', 'UNSPECIFIED', '' ) ;
#127 = APPROVAL_STATUS ( 'not_yet_approved' ) ;
#128 = PERSON_AND_ORGANIZATION_ROLE ( 'creator' ) ;
#129 = APPROVAL_PERSON_ORGANIZATION ( #33, #68, #73 ) ;
#130 = DIRECTION ( 'NONE',  ( 0.0000000000000000000, 0.0000000000000000000, 1.000000000000000000 ) ) ;
#131 = CARTESIAN_POINT ( 'NONE',  ( 0.0000000000000000000, 0.0000000000000000000, -2.000000000000000000 ) ) ;
#132 = FACE_OUTER_BOUND ( 'NONE', #22, .T. ) ;
#133 = CALENDAR_DATE ( 2017, 1, 2 ) ;
#134 = APPROVAL ( #142, 'UNSPECIFIED' ) ;
#135 = CIRCLE ( 'NONE', #70, 7.500000000000000000 ) ;
#136 = EDGE_CURVE ( 'NONE', #37, #124, #170, .T. ) ;
#137 = ORIENTED_EDGE ( 'NONE', *, *, #149, .F. ) ;
#138 = FACE_OUTER_BOUND ( 'NONE', #153, .T. ) ;
#139 = AXIS2_PLACEMENT_3D ( 'NONE', #131, #49, #163 ) ;
#140 = VECTOR ( 'NONE', #51, 1000.000000000000000 ) ;
#141 = MECHANICAL_CONTEXT ( 'NONE', #13, 'mechanical' ) ;
#142 = APPROVAL_STATUS ( 'not_yet_approved' ) ;
#143 = FACE_OUTER_BOUND ( 'NONE', #21, .T. ) ;
#144 = LOCAL_TIME ( 10, 45, 55.00000000000000000, #6 ) ;
#145 = CARTESIAN_POINT ( 'NONE',  ( 0.0000000000000000000, 0.0000000000000000000, -2.000000000000000000 ) ) ;
#146 = CARTESIAN_POINT ( 'NONE',  ( 0.0000000000000000000, 0.0000000000000000000, -2.000000000000000000 ) ) ;
#147 = ORIENTED_EDGE ( 'NONE', *, *, #55, .F. ) ;
#148 = PERSON_AND_ORGANIZATION ( #23, #126 ) ;
#149 = EDGE_CURVE ( 'NONE', #155, #124, #58, .T. ) ;
#150 = CC_DESIGN_APPROVAL ( #68, ( #173 ) ) ;
#151 = ADVANCED_FACE ( 'NONE', ( #108 ), #100, .T. ) ;
#152 = PRODUCT_RELATED_PRODUCT_CATEGORY ( 'detail', '', ( #169 ) ) ;
#153 = EDGE_LOOP ( 'NONE', ( #147, #17 ) ) ;
#154 = CC_DESIGN_APPROVAL ( #84, ( #71 ) ) ;
#155 = VERTEX_POINT ( 'NONE', #122 ) ;
#156 = DATE_TIME_ROLE ( 'creation_date' ) ;
#157 = CC_DESIGN_DATE_AND_TIME_ASSIGNMENT ( #160, #96, ( #11 ) ) ;
#158 = CARTESIAN_POINT ( 'NONE',  ( 0.0000000000000000000, 0.0000000000000000000, 0.0000000000000000000 ) ) ;
#159 = LOCAL_TIME ( 10, 45, 55.00000000000000000, #20 ) ;
#160 = DATE_AND_TIME ( #85, #111 ) ;
#161 = DIRECTION ( 'NONE',  ( 1.000000000000000000, 0.0000000000000000000, -0.0000000000000000000 ) ) ;
#162 = CC_DESIGN_DATE_AND_TIME_ASSIGNMENT ( #98, #156, ( #71 ) ) ;
#163 = DIRECTION ( 'NONE',  ( 1.000000000000000000, 0.0000000000000000000, 0.0000000000000000000 ) ) ;
#164 = ADVANCED_FACE ( 'NONE', ( #138 ), #103, .F. ) ;
#165 = EDGE_LOOP ( 'NONE', ( #43, #25, #115, #7 ) ) ;
#166 = CC_DESIGN_PERSON_AND_ORGANIZATION_ASSIGNMENT ( #148, #128, ( #71 ) ) ;
#167 = DATE_AND_TIME ( #9, #159 ) ;
#168 = EDGE_CURVE ( 'NONE', #39, #155, #67, .T. ) ;
#169 = PRODUCT ( 'Web Model 84463', 'Web Model 84463', '', ( #141 ) ) ;
#170 = LINE ( 'NONE', #29, #140 ) ;
#171 = PERSON_AND_ORGANIZATION_ROLE ( 'creator' ) ;
#172 = DATE_AND_TIME ( #52, #144 ) ;
#173 = PRODUCT_DEFINITION_FORMATION_WITH_SPECIFIED_SOURCE ( 'ANY', '', #169, .NOT_KNOWN. ) ;
#174 = PERSON_AND_ORGANIZATION_ROLE ( 'design_owner' ) ;
#175 = PERSON_AND_ORGANIZATION_ROLE ( 'classification_officer' ) ;
ENDSEC;
END-ISO-10303-21;
