ISO-10303-21;
HEADER;
FILE_DESCRIPTION (( 'STEP AP203' ),
    '1' );
FILE_NAME ('Web Model 13799_13799.step',
    '2019-12-10T20:38:58',
    ( '' ),
    ( '' ),
    'SwSTEP 2.0',
    'SolidWorks 2018',
    '' );
FILE_SCHEMA (( 'CONFIG_CONTROL_DESIGN' ));
ENDSEC;

DATA;
#1 = ORIENTED_EDGE ( 'NONE', *, *, #11, .F. ) ;
#2 = PRODUCT_DEFINITION_SHAPE ( 'NONE', 'NONE',  #98 ) ;
#3 = PRODUCT_RELATED_PRODUCT_CATEGORY ( 'detail', '', ( #161 ) ) ;
#4 = CALENDAR_DATE ( 2019, 10, 12 ) ;
#5 = CARTESIAN_POINT ( 'NONE',  ( 5.000000000000000000, 0.0000000000000000000, 0.0000000000000000000 ) ) ;
#6 = DIRECTION ( 'NONE',  ( -1.000000000000000000, -0.0000000000000000000, -0.0000000000000000000 ) ) ;
#7 = DIRECTION ( 'NONE',  ( 0.0000000000000000000, 0.0000000000000000000, -1.000000000000000000 ) ) ;
#8 = LOCAL_TIME ( 15, 38, 58.00000000000000000, #128 ) ;
#9 = APPROVAL_ROLE ( '' ) ;
#10 = LOCAL_TIME ( 15, 38, 58.00000000000000000, #140 ) ;
#11 = EDGE_CURVE ( 'NONE', #122, #141, #82, .T. ) ;
#12 = FACE_OUTER_BOUND ( 'NONE', #45, .T. ) ;
#13 = PERSON_AND_ORGANIZATION ( #173, #115 ) ;
#14 = APPROVAL_DATE_TIME ( #51, #105 ) ;
#15 = EDGE_LOOP ( 'NONE', ( #20, #149 ) ) ;
#16 = AXIS2_PLACEMENT_3D ( 'NONE', #21, #19, #32 ) ;
#17 = UNCERTAINTY_MEASURE_WITH_UNIT (LENGTH_MEASURE( 1.000000000000000082E-05 ), #70, 'distance_accuracy_value', 'NONE');
#18 = FACE_OUTER_BOUND ( 'NONE', #62, .T. ) ;
#19 = DIRECTION ( 'NONE',  ( -1.000000000000000000, -0.0000000000000000000, -0.0000000000000000000 ) ) ;
#20 = ORIENTED_EDGE ( 'NONE', *, *, #67, .F. ) ;
#21 = CARTESIAN_POINT ( 'NONE',  ( 5.000000000000000000, 0.0000000000000000000, 0.0000000000000000000 ) ) ;
#22 = APPLICATION_PROTOCOL_DEFINITION ( 'international standard', 'config_control_design', 1994, #174 ) ;
#23 = VERTEX_POINT ( 'NONE', #134 ) ;
#24 = MANIFOLD_SOLID_BREP ( '001', #138 ) ;
#25 = AXIS2_PLACEMENT_3D ( 'NONE', #5, #6, #157 ) ;
#26 = PERSON_AND_ORGANIZATION ( #173, #115 ) ;
#27 = VERTEX_POINT ( 'NONE', #131 ) ;
#28 = PERSON_AND_ORGANIZATION ( #173, #115 ) ;
#29 = CALENDAR_DATE ( 2019, 10, 12 ) ;
#30 = SHAPE_DEFINITION_REPRESENTATION ( #2, #37 ) ;
#31 = DIRECTION ( 'NONE',  ( 1.000000000000000000, 0.0000000000000000000, 0.0000000000000000000 ) ) ;
#32 = DIRECTION ( 'NONE',  ( 0.0000000000000000000, 0.0000000000000000000, 1.000000000000000000 ) ) ;
#33 = DIRECTION ( 'NONE',  ( 0.0000000000000000000, 0.0000000000000000000, -1.000000000000000000 ) ) ;
#34 = PERSON_AND_ORGANIZATION_ROLE ( 'design_owner' ) ;
#35 = APPROVAL_PERSON_ORGANIZATION ( #43, #77, #74 ) ;
#36 =( GEOMETRIC_REPRESENTATION_CONTEXT ( 3 ) GLOBAL_UNCERTAINTY_ASSIGNED_CONTEXT ( ( #17 ) ) GLOBAL_UNIT_ASSIGNED_CONTEXT ( ( #70, #38, #153 ) ) REPRESENTATION_CONTEXT ( 'NONE', 'WORKASPACE' ) );
#37 = ADVANCED_BREP_SHAPE_REPRESENTATION ( 'Web Model 13799_13799', ( #24, #166 ), #36 ) ;
#38 =( NAMED_UNIT ( * ) PLANE_ANGLE_UNIT ( ) SI_UNIT ( $, .RADIAN. ) );
#39 = PERSON_AND_ORGANIZATION_ROLE ( 'design_supplier' ) ;
#40 = ORIENTED_EDGE ( 'NONE', *, *, #159, .T. ) ;
#41 = ADVANCED_FACE ( 'NONE', ( #18 ), #60, .T. ) ;
#42 = COORDINATED_UNIVERSAL_TIME_OFFSET ( 5, 0, .BEHIND. ) ;
#43 = PERSON_AND_ORGANIZATION ( #173, #115 ) ;
#44 = DIRECTION ( 'NONE',  ( -1.000000000000000000, -0.0000000000000000000, -0.0000000000000000000 ) ) ;
#45 = EDGE_LOOP ( 'NONE', ( #164, #114, #72, #103 ) ) ;
#46 = PLANE ( 'NONE',  #50 ) ;
#47 = CARTESIAN_POINT ( 'NONE',  ( 5.000000000000000000, 4.592425496802575156E-15, -37.50000000000000711 ) ) ;
#48 = DATE_AND_TIME ( #175, #10 ) ;
#49 = APPROVAL_STATUS ( 'not_yet_approved' ) ;
#50 = AXIS2_PLACEMENT_3D ( 'NONE', #132, #84, #33 ) ;
#51 = DATE_AND_TIME ( #57, #112 ) ;
#52 = EDGE_CURVE ( 'NONE', #141, #27, #55, .T. ) ;
#53 = PERSON_AND_ORGANIZATION_ROLE ( 'creator' ) ;
#54 = DATE_AND_TIME ( #4, #94 ) ;
#55 = CIRCLE ( 'NONE', #137, 37.50000000000000711 ) ;
#56 = AXIS2_PLACEMENT_3D ( 'NONE', #95, #85, #150 ) ;
#57 = CALENDAR_DATE ( 2019, 10, 12 ) ;
#58 = AXIS2_PLACEMENT_3D ( 'NONE', #168, #61, #7 ) ;
#59 = ORIENTED_EDGE ( 'NONE', *, *, #67, .T. ) ;
#60 = PLANE ( 'NONE',  #56 ) ;
#61 = DIRECTION ( 'NONE',  ( 1.000000000000000000, 0.0000000000000000000, 0.0000000000000000000 ) ) ;
#62 = EDGE_LOOP ( 'NONE', ( #171, #40 ) ) ;
#63 = DATE_TIME_ROLE ( 'classification_date' ) ;
#64 = PERSON_AND_ORGANIZATION_ROLE ( 'creator' ) ;
#65 = SECURITY_CLASSIFICATION_LEVEL ( 'unclassified' ) ;
#66 = ORIENTED_EDGE ( 'NONE', *, *, #71, .T. ) ;
#67 = EDGE_CURVE ( 'NONE', #27, #141, #119, .T. ) ;
#68 = CYLINDRICAL_SURFACE ( 'NONE', #25, 37.50000000000000711 ) ;
#69 = CC_DESIGN_PERSON_AND_ORGANIZATION_ASSIGNMENT ( #76, #53, ( #98 ) ) ;
#70 =( LENGTH_UNIT ( ) NAMED_UNIT ( * ) SI_UNIT ( .MILLI., .METRE. ) );
#71 = EDGE_CURVE ( 'NONE', #23, #27, #91, .T. ) ;
#72 = ORIENTED_EDGE ( 'NONE', *, *, #52, .T. ) ;
#73 = AXIS2_PLACEMENT_3D ( 'NONE', #96, #31, #83 ) ;
#74 = APPROVAL_ROLE ( '' ) ;
#75 = APPROVAL_DATE_TIME ( #48, #77 ) ;
#76 = PERSON_AND_ORGANIZATION ( #173, #115 ) ;
#77 = APPROVAL ( #49, 'UNSPECIFIED' ) ;
#78 = COORDINATED_UNIVERSAL_TIME_OFFSET ( 5, 0, .BEHIND. ) ;
#79 = CIRCLE ( 'NONE', #100, 37.50000000000000711 ) ;
#80 = CC_DESIGN_PERSON_AND_ORGANIZATION_ASSIGNMENT ( #13, #34, ( #161 ) ) ;
#81 = DIRECTION ( 'NONE',  ( 1.000000000000000000, 0.0000000000000000000, 0.0000000000000000000 ) ) ;
#82 = LINE ( 'NONE', #47, #158 ) ;
#83 = DIRECTION ( 'NONE',  ( 0.0000000000000000000, 0.0000000000000000000, -1.000000000000000000 ) ) ;
#84 = DIRECTION ( 'NONE',  ( 1.000000000000000000, 0.0000000000000000000, 0.0000000000000000000 ) ) ;
#85 = DIRECTION ( 'NONE',  ( 1.000000000000000000, 0.0000000000000000000, 0.0000000000000000000 ) ) ;
#86 = EDGE_LOOP ( 'NONE', ( #1, #136, #66, #59 ) ) ;
#87 = APPROVAL_STATUS ( 'not_yet_approved' ) ;
#88 = FACE_OUTER_BOUND ( 'NONE', #15, .T. ) ;
#89 = PERSON_AND_ORGANIZATION_ROLE ( 'classification_officer' ) ;
#90 = CARTESIAN_POINT ( 'NONE',  ( 5.000000000000000000, 0.0000000000000000000, 0.0000000000000000000 ) ) ;
#91 = LINE ( 'NONE', #167, #130 ) ;
#92 = CYLINDRICAL_SURFACE ( 'NONE', #16, 37.50000000000000711 ) ;
#93 = CALENDAR_DATE ( 2019, 10, 12 ) ;
#94 = LOCAL_TIME ( 15, 38, 58.00000000000000000, #42 ) ;
#95 = CARTESIAN_POINT ( 'NONE',  ( 5.000000000000000000, 0.0000000000000000000, 0.0000000000000000000 ) ) ;
#96 = CARTESIAN_POINT ( 'NONE',  ( 5.000000000000000000, 0.0000000000000000000, 0.0000000000000000000 ) ) ;
#97 = CARTESIAN_POINT ( 'NONE',  ( 0.0000000000000000000, 0.0000000000000000000, 0.0000000000000000000 ) ) ;
#98 = PRODUCT_DEFINITION ( 'UNKNOWN', '', #121, #109 ) ;
#99 = FACE_OUTER_BOUND ( 'NONE', #86, .T. ) ;
#100 = AXIS2_PLACEMENT_3D ( 'NONE', #90, #155, #110 ) ;
#101 = APPROVAL_STATUS ( 'not_yet_approved' ) ;
#102 = DATE_AND_TIME ( #29, #8 ) ;
#103 = ORIENTED_EDGE ( 'NONE', *, *, #71, .F. ) ;
#104 = LOCAL_TIME ( 15, 38, 58.00000000000000000, #78 ) ;
#105 = APPROVAL ( #87, 'UNSPECIFIED' ) ;
#106 = CC_DESIGN_PERSON_AND_ORGANIZATION_ASSIGNMENT ( #146, #64, ( #121 ) ) ;
#107 = CARTESIAN_POINT ( 'NONE',  ( 0.0000000000000000000, 0.0000000000000000000, 0.0000000000000000000 ) ) ;
#108 = SECURITY_CLASSIFICATION ( '', '', #65 ) ;
#109 = DESIGN_CONTEXT ( 'detailed design', #135, 'design' ) ;
#110 = DIRECTION ( 'NONE',  ( 0.0000000000000000000, 0.0000000000000000000, -1.000000000000000000 ) ) ;
#111 = DIRECTION ( 'NONE',  ( 1.000000000000000000, 0.0000000000000000000, 0.0000000000000000000 ) ) ;
#112 = LOCAL_TIME ( 15, 38, 58.00000000000000000, #147 ) ;
#113 = EDGE_CURVE ( 'NONE', #23, #122, #152, .T. ) ;
#114 = ORIENTED_EDGE ( 'NONE', *, *, #11, .T. ) ;
#115 = ORGANIZATION ( 'UNSPECIFIED', 'UNSPECIFIED', '' ) ;
#116 = CC_DESIGN_DATE_AND_TIME_ASSIGNMENT ( #163, #123, ( #98 ) ) ;
#117 = DIRECTION ( 'NONE',  ( 0.0000000000000000000, 0.0000000000000000000, -1.000000000000000000 ) ) ;
#118 = CARTESIAN_POINT ( 'NONE',  ( 0.0000000000000000000, 4.592425496802575156E-15, -37.50000000000000711 ) ) ;
#119 = CIRCLE ( 'NONE', #58, 37.50000000000000711 ) ;
#120 = MECHANICAL_CONTEXT ( 'NONE', #174, 'mechanical' ) ;
#121 = PRODUCT_DEFINITION_FORMATION_WITH_SPECIFIED_SOURCE ( 'ANY', '', #161, .NOT_KNOWN. ) ;
#122 = VERTEX_POINT ( 'NONE', #165 ) ;
#123 = DATE_TIME_ROLE ( 'creation_date' ) ;
#124 = APPROVAL_ROLE ( '' ) ;
#125 = PERSON_AND_ORGANIZATION ( #173, #115 ) ;
#126 = CC_DESIGN_DATE_AND_TIME_ASSIGNMENT ( #54, #63, ( #108 ) ) ;
#127 = ADVANCED_FACE ( 'NONE', ( #99 ), #92, .T. ) ;
#128 = COORDINATED_UNIVERSAL_TIME_OFFSET ( 5, 0, .BEHIND. ) ;
#129 = CC_DESIGN_APPROVAL ( #77, ( #121 ) ) ;
#130 = VECTOR ( 'NONE', #151, 1000.000000000000000 ) ;
#131 = CARTESIAN_POINT ( 'NONE',  ( 0.0000000000000000000, 0.0000000000000000000, 37.50000000000000711 ) ) ;
#132 = CARTESIAN_POINT ( 'NONE',  ( 0.0000000000000000000, 0.0000000000000000000, 0.0000000000000000000 ) ) ;
#133 = CC_DESIGN_SECURITY_CLASSIFICATION ( #108, ( #121 ) ) ;
#134 = CARTESIAN_POINT ( 'NONE',  ( 5.000000000000000000, 0.0000000000000000000, 37.50000000000000711 ) ) ;
#135 = APPLICATION_CONTEXT ( 'configuration controlled 3d designs of mechanical parts and assemblies' ) ;
#136 = ORIENTED_EDGE ( 'NONE', *, *, #113, .F. ) ;
#137 = AXIS2_PLACEMENT_3D ( 'NONE', #107, #81, #117 ) ;
#138 = CLOSED_SHELL ( 'NONE', ( #160, #127, #41, #143 ) ) ;
#139 = APPLICATION_PROTOCOL_DEFINITION ( 'international standard', 'config_control_design', 1994, #135 ) ;
#140 = COORDINATED_UNIVERSAL_TIME_OFFSET ( 5, 0, .BEHIND. ) ;
#141 = VERTEX_POINT ( 'NONE', #118 ) ;
#142 = CC_DESIGN_PERSON_AND_ORGANIZATION_ASSIGNMENT ( #26, #39, ( #121 ) ) ;
#143 = ADVANCED_FACE ( 'NONE', ( #88 ), #46, .F. ) ;
#144 = APPROVAL_PERSON_ORGANIZATION ( #28, #148, #124 ) ;
#145 = CC_DESIGN_PERSON_AND_ORGANIZATION_ASSIGNMENT ( #162, #89, ( #108 ) ) ;
#146 = PERSON_AND_ORGANIZATION ( #173, #115 ) ;
#147 = COORDINATED_UNIVERSAL_TIME_OFFSET ( 5, 0, .BEHIND. ) ;
#148 = APPROVAL ( #101, 'UNSPECIFIED' ) ;
#149 = ORIENTED_EDGE ( 'NONE', *, *, #52, .F. ) ;
#150 = DIRECTION ( 'NONE',  ( 0.0000000000000000000, 0.0000000000000000000, -1.000000000000000000 ) ) ;
#151 = DIRECTION ( 'NONE',  ( -1.000000000000000000, -0.0000000000000000000, -0.0000000000000000000 ) ) ;
#152 = CIRCLE ( 'NONE', #73, 37.50000000000000711 ) ;
#153 =( NAMED_UNIT ( * ) SI_UNIT ( $, .STERADIAN. ) SOLID_ANGLE_UNIT ( ) );
#154 = APPROVAL_PERSON_ORGANIZATION ( #125, #105, #9 ) ;
#155 = DIRECTION ( 'NONE',  ( 1.000000000000000000, 0.0000000000000000000, 0.0000000000000000000 ) ) ;
#156 = CC_DESIGN_APPROVAL ( #105, ( #98 ) ) ;
#157 = DIRECTION ( 'NONE',  ( 0.0000000000000000000, 0.0000000000000000000, 1.000000000000000000 ) ) ;
#158 = VECTOR ( 'NONE', #44, 1000.000000000000000 ) ;
#159 = EDGE_CURVE ( 'NONE', #122, #23, #79, .T. ) ;
#160 = ADVANCED_FACE ( 'NONE', ( #12 ), #68, .T. ) ;
#161 = PRODUCT ( 'Web Model 13799_13799', 'Web Model 13799_13799', '', ( #120 ) ) ;
#162 = PERSON_AND_ORGANIZATION ( #173, #115 ) ;
#163 = DATE_AND_TIME ( #93, #104 ) ;
#164 = ORIENTED_EDGE ( 'NONE', *, *, #159, .F. ) ;
#165 = CARTESIAN_POINT ( 'NONE',  ( 5.000000000000000000, 4.592425496802575156E-15, -37.50000000000000711 ) ) ;
#166 = AXIS2_PLACEMENT_3D ( 'NONE', #97, #169, #111 ) ;
#167 = CARTESIAN_POINT ( 'NONE',  ( 5.000000000000000000, 0.0000000000000000000, 37.50000000000000711 ) ) ;
#168 = CARTESIAN_POINT ( 'NONE',  ( 0.0000000000000000000, 0.0000000000000000000, 0.0000000000000000000 ) ) ;
#169 = DIRECTION ( 'NONE',  ( 0.0000000000000000000, 0.0000000000000000000, 1.000000000000000000 ) ) ;
#170 = APPROVAL_DATE_TIME ( #102, #148 ) ;
#171 = ORIENTED_EDGE ( 'NONE', *, *, #113, .T. ) ;
#172 = CC_DESIGN_APPROVAL ( #148, ( #108 ) ) ;
#173 = PERSON ( 'UNSPECIFIED', 'UNSPECIFIED', 'UNSPECIFIED', ('UNSPECIFIED'), ('UNSPECIFIED'), ('UNSPECIFIED') ) ;
#174 = APPLICATION_CONTEXT ( 'configuration controlled 3d designs of mechanical parts and assemblies' ) ;
#175 = CALENDAR_DATE ( 2019, 10, 12 ) ;
ENDSEC;
END-ISO-10303-21;
