ISO-10303-21;
HEADER;
FILE_DESCRIPTION (( 'STEP AP203' ),
    '1' );
FILE_NAME ('Web Model 19841_19844.step',
    '2022-01-27T21:20:21',
    ( '' ),
    ( '' ),
    'SwSTEP 2.0',
    'SolidWorks 2021',
    '' );
FILE_SCHEMA (( 'CONFIG_CONTROL_DESIGN' ));
ENDSEC;

DATA;
#1 = ADVANCED_FACE ( 'NONE', ( #136 ), #59, .T. ) ;
#2 = SHAPE_DEFINITION_REPRESENTATION ( #121, #131 ) ;
#3 = APPROVAL_DATE_TIME ( #18, #138 ) ;
#4 = CALENDAR_DATE ( 2022, 27, 1 ) ;
#5 = CIRCLE ( 'NONE', #125, 25.00000000000000000 ) ;
#6 = APPROVAL_PERSON_ORGANIZATION ( #170, #129, #53 ) ;
#7 = ORIENTED_EDGE ( 'NONE', *, *, #98, .T. ) ;
#8 = CC_DESIGN_APPROVAL ( #138, ( #40 ) ) ;
#9 = CARTESIAN_POINT ( 'NONE',  ( -25.00000000000000000, 0.000000000000000000, 5.000000000000000000 ) ) ;
#10 = PERSON ( 'UNSPECIFIED', 'UNSPECIFIED', 'UNSPECIFIED', ('UNSPECIFIED'), ('UNSPECIFIED'), ('UNSPECIFIED') ) ;
#11 = ADVANCED_FACE ( 'NONE', ( #35 ), #89, .F. ) ;
#12 = AXIS2_PLACEMENT_3D ( 'NONE', #110, #67, #126 ) ;
#13 = DIRECTION ( 'NONE',  ( -0.000000000000000000, -0.000000000000000000, -1.000000000000000000 ) ) ;
#14 = LINE ( 'NONE', #141, #83 ) ;
#15 = CC_DESIGN_PERSON_AND_ORGANIZATION_ASSIGNMENT ( #51, #106, ( #117 ) ) ;
#16 = CALENDAR_DATE ( 2022, 27, 1 ) ;
#17 = DESIGN_CONTEXT ( 'detailed design', #119, 'design' ) ;
#18 = DATE_AND_TIME ( #84, #61 ) ;
#19 = PRODUCT_RELATED_PRODUCT_CATEGORY ( 'detail', '', ( #167 ) ) ;
#20 = ORIENTED_EDGE ( 'NONE', *, *, #57, .T. ) ;
#21 = ORIENTED_EDGE ( 'NONE', *, *, #30, .T. ) ;
#22 = VERTEX_POINT ( 'NONE', #132 ) ;
#23 = APPROVAL_ROLE ( '' ) ;
#24 = APPROVAL_PERSON_ORGANIZATION ( #159, #87, #23 ) ;
#25 = CARTESIAN_POINT ( 'NONE',  ( 0.000000000000000000, 0.000000000000000000, 5.000000000000000000 ) ) ;
#26 = CARTESIAN_POINT ( 'NONE',  ( 0.000000000000000000, 0.000000000000000000, 5.000000000000000000 ) ) ;
#27 = APPROVAL_STATUS ( 'not_yet_approved' ) ;
#28 = PERSON_AND_ORGANIZATION ( #10, #52 ) ;
#29 = DATE_TIME_ROLE ( 'classification_date' ) ;
#30 = EDGE_CURVE ( 'NONE', #22, #108, #115, .T. ) ;
#31 = LOCAL_TIME ( 16, 20, 21.00000000000000000, #120 ) ;
#32 = EDGE_CURVE ( 'NONE', #100, #108, #151, .T. ) ;
#33 = COORDINATED_UNIVERSAL_TIME_OFFSET ( 5, 0, .BEHIND. ) ;
#34 = EDGE_LOOP ( 'NONE', ( #45, #99 ) ) ;
#35 = FACE_OUTER_BOUND ( 'NONE', #34, .T. ) ;
#36 = CARTESIAN_POINT ( 'NONE',  ( -25.00000000000000000, 0.000000000000000000, 5.000000000000000000 ) ) ;
#37 = AXIS2_PLACEMENT_3D ( 'NONE', #78, #157, #95 ) ;
#38 = APPROVAL_STATUS ( 'not_yet_approved' ) ;
#39 = AXIS2_PLACEMENT_3D ( 'NONE', #90, #43, #109 ) ;
#40 = SECURITY_CLASSIFICATION ( '', '', #127 ) ;
#41 = CC_DESIGN_PERSON_AND_ORGANIZATION_ASSIGNMENT ( #28, #85, ( #117 ) ) ;
#42 = DIRECTION ( 'NONE',  ( 1.000000000000000000, 0.000000000000000000, 0.000000000000000000 ) ) ;
#43 = DIRECTION ( 'NONE',  ( 0.000000000000000000, 0.000000000000000000, 1.000000000000000000 ) ) ;
#44 = DIRECTION ( 'NONE',  ( 0.000000000000000000, 0.000000000000000000, 1.000000000000000000 ) ) ;
#45 = ORIENTED_EDGE ( 'NONE', *, *, #174, .F. ) ;
#46 = APPLICATION_PROTOCOL_DEFINITION ( 'international standard', 'config_control_design', 1994, #119 ) ;
#47 =( NAMED_UNIT ( * ) SI_UNIT ( $, .STERADIAN. ) SOLID_ANGLE_UNIT ( ) );
#48 = MECHANICAL_CONTEXT ( 'NONE', #101, 'mechanical' ) ;
#49 = CARTESIAN_POINT ( 'NONE',  ( 25.00000000000000000, 3.061616997868383043E-15, 5.000000000000000000 ) ) ;
#50 = CC_DESIGN_DATE_AND_TIME_ASSIGNMENT ( #111, #144, ( #79 ) ) ;
#51 = PERSON_AND_ORGANIZATION ( #10, #52 ) ;
#52 = ORGANIZATION ( 'UNSPECIFIED', 'UNSPECIFIED', '' ) ;
#53 = APPROVAL_ROLE ( '' ) ;
#54 = CIRCLE ( 'NONE', #37, 25.00000000000000000 ) ;
#55 = PERSON_AND_ORGANIZATION ( #10, #52 ) ;
#56 = ORIENTED_EDGE ( 'NONE', *, *, #174, .T. ) ;
#57 = EDGE_CURVE ( 'NONE', #71, #100, #5, .T. ) ;
#58 = EDGE_LOOP ( 'NONE', ( #70, #134, #21, #165 ) ) ;
#59 = CYLINDRICAL_SURFACE ( 'NONE', #142, 25.00000000000000000 ) ;
#60 = DIRECTION ( 'NONE',  ( -1.000000000000000000, 0.000000000000000000, 0.000000000000000000 ) ) ;
#61 = LOCAL_TIME ( 16, 20, 21.00000000000000000, #162 ) ;
#62 = CYLINDRICAL_SURFACE ( 'NONE', #171, 25.00000000000000000 ) ;
#63 = PERSON_AND_ORGANIZATION ( #10, #52 ) ;
#64 = CIRCLE ( 'NONE', #12, 25.00000000000000000 ) ;
#65 = ADVANCED_FACE ( 'NONE', ( #124 ), #172, .T. ) ;
#66 = APPLICATION_PROTOCOL_DEFINITION ( 'international standard', 'config_control_design', 1994, #101 ) ;
#67 = DIRECTION ( 'NONE',  ( 0.000000000000000000, 0.000000000000000000, 1.000000000000000000 ) ) ;
#68 = VECTOR ( 'NONE', #92, 1000.000000000000000 ) ;
#69 = CC_DESIGN_SECURITY_CLASSIFICATION ( #40, ( #117 ) ) ;
#70 = ORIENTED_EDGE ( 'NONE', *, *, #57, .F. ) ;
#71 = VERTEX_POINT ( 'NONE', #49 ) ;
#72 = CC_DESIGN_APPROVAL ( #129, ( #117 ) ) ;
#73 = DIRECTION ( 'NONE',  ( 0.000000000000000000, 0.000000000000000000, 1.000000000000000000 ) ) ;
#74 = ORIENTED_EDGE ( 'NONE', *, *, #32, .T. ) ;
#75 = FACE_OUTER_BOUND ( 'NONE', #102, .T. ) ;
#76 = APPROVAL_PERSON_ORGANIZATION ( #55, #138, #164 ) ;
#77 = LOCAL_TIME ( 16, 20, 21.00000000000000000, #103 ) ;
#78 = CARTESIAN_POINT ( 'NONE',  ( 0.000000000000000000, 0.000000000000000000, 5.000000000000000000 ) ) ;
#79 = PRODUCT_DEFINITION ( 'UNKNOWN', '', #117, #17 ) ;
#80 =( LENGTH_UNIT ( ) NAMED_UNIT ( * ) SI_UNIT ( .MILLI., .METRE. ) );
#81 = DIRECTION ( 'NONE',  ( -0.000000000000000000, -0.000000000000000000, -1.000000000000000000 ) ) ;
#82 =( NAMED_UNIT ( * ) PLANE_ANGLE_UNIT ( ) SI_UNIT ( $, .RADIAN. ) );
#83 = VECTOR ( 'NONE', #81, 1000.000000000000000 ) ;
#84 = CALENDAR_DATE ( 2022, 27, 1 ) ;
#85 = PERSON_AND_ORGANIZATION_ROLE ( 'creator' ) ;
#86 = LOCAL_TIME ( 16, 20, 21.00000000000000000, #33 ) ;
#87 = APPROVAL ( #38, 'UNSPECIFIED' ) ;
#88 = AXIS2_PLACEMENT_3D ( 'NONE', #114, #173, #158 ) ;
#89 = PLANE ( 'NONE',  #39 ) ;
#90 = CARTESIAN_POINT ( 'NONE',  ( 0.000000000000000000, 0.000000000000000000, 0.000000000000000000 ) ) ;
#91 = ORIENTED_EDGE ( 'NONE', *, *, #98, .F. ) ;
#92 = DIRECTION ( 'NONE',  ( -0.000000000000000000, -0.000000000000000000, -1.000000000000000000 ) ) ;
#93 = EDGE_LOOP ( 'NONE', ( #7, #20 ) ) ;
#94 = PERSON_AND_ORGANIZATION ( #10, #52 ) ;
#95 = DIRECTION ( 'NONE',  ( 1.000000000000000000, 0.000000000000000000, 0.000000000000000000 ) ) ;
#96 = APPROVAL_DATE_TIME ( #140, #87 ) ;
#97 = COORDINATED_UNIVERSAL_TIME_OFFSET ( 5, 0, .BEHIND. ) ;
#98 = EDGE_CURVE ( 'NONE', #100, #71, #54, .T. ) ;
#99 = ORIENTED_EDGE ( 'NONE', *, *, #30, .F. ) ;
#100 = VERTEX_POINT ( 'NONE', #9 ) ;
#101 = APPLICATION_CONTEXT ( 'configuration controlled 3d designs of mechanical parts and assemblies' ) ;
#102 = EDGE_LOOP ( 'NONE', ( #169, #91, #74, #56 ) ) ;
#103 = COORDINATED_UNIVERSAL_TIME_OFFSET ( 5, 0, .BEHIND. ) ;
#104 = CALENDAR_DATE ( 2022, 27, 1 ) ;
#105 = PERSON_AND_ORGANIZATION ( #10, #52 ) ;
#106 = PERSON_AND_ORGANIZATION_ROLE ( 'design_supplier' ) ;
#107 = EDGE_CURVE ( 'NONE', #71, #22, #14, .T. ) ;
#108 = VERTEX_POINT ( 'NONE', #154 ) ;
#109 = DIRECTION ( 'NONE',  ( 1.000000000000000000, 0.000000000000000000, -0.000000000000000000 ) ) ;
#110 = CARTESIAN_POINT ( 'NONE',  ( 0.000000000000000000, 0.000000000000000000, 0.000000000000000000 ) ) ;
#111 = DATE_AND_TIME ( #104, #123 ) ;
#112 = DIRECTION ( 'NONE',  ( -1.000000000000000000, 0.000000000000000000, 0.000000000000000000 ) ) ;
#113 = DIRECTION ( 'NONE',  ( 1.000000000000000000, 0.000000000000000000, -0.000000000000000000 ) ) ;
#114 = CARTESIAN_POINT ( 'NONE',  ( 0.000000000000000000, 0.000000000000000000, 0.000000000000000000 ) ) ;
#115 = CIRCLE ( 'NONE', #128, 25.00000000000000000 ) ;
#116 = CC_DESIGN_APPROVAL ( #87, ( #79 ) ) ;
#117 = PRODUCT_DEFINITION_FORMATION_WITH_SPECIFIED_SOURCE ( 'ANY', '', #167, .NOT_KNOWN. ) ;
#118 = APPROVAL_DATE_TIME ( #147, #129 ) ;
#119 = APPLICATION_CONTEXT ( 'configuration controlled 3d designs of mechanical parts and assemblies' ) ;
#120 = COORDINATED_UNIVERSAL_TIME_OFFSET ( 5, 0, .BEHIND. ) ;
#121 = PRODUCT_DEFINITION_SHAPE ( 'NONE', 'NONE',  #79 ) ;
#122 = DIRECTION ( 'NONE',  ( 0.000000000000000000, 0.000000000000000000, 1.000000000000000000 ) ) ;
#123 = LOCAL_TIME ( 16, 20, 21.00000000000000000, #97 ) ;
#124 = FACE_OUTER_BOUND ( 'NONE', #93, .T. ) ;
#125 = AXIS2_PLACEMENT_3D ( 'NONE', #168, #44, #152 ) ;
#126 = DIRECTION ( 'NONE',  ( 1.000000000000000000, 0.000000000000000000, 0.000000000000000000 ) ) ;
#127 = SECURITY_CLASSIFICATION_LEVEL ( 'unclassified' ) ;
#128 = AXIS2_PLACEMENT_3D ( 'NONE', #133, #73, #42 ) ;
#129 = APPROVAL ( #27, 'UNSPECIFIED' ) ;
#130 = APPROVAL_STATUS ( 'not_yet_approved' ) ;
#131 = ADVANCED_BREP_SHAPE_REPRESENTATION ( 'Web Model 19841_19844', ( #156, #88 ), #148 ) ;
#132 = CARTESIAN_POINT ( 'NONE',  ( 25.00000000000000000, 3.061616997868383043E-15, 0.000000000000000000 ) ) ;
#133 = CARTESIAN_POINT ( 'NONE',  ( 0.000000000000000000, 0.000000000000000000, 0.000000000000000000 ) ) ;
#134 = ORIENTED_EDGE ( 'NONE', *, *, #107, .T. ) ;
#135 = ADVANCED_FACE ( 'NONE', ( #75 ), #62, .T. ) ;
#136 = FACE_OUTER_BOUND ( 'NONE', #58, .T. ) ;
#137 = PERSON_AND_ORGANIZATION_ROLE ( 'design_owner' ) ;
#138 = APPROVAL ( #130, 'UNSPECIFIED' ) ;
#139 = UNCERTAINTY_MEASURE_WITH_UNIT (LENGTH_MEASURE( 1.000000000000000082E-05 ), #80, 'distance_accuracy_value', 'NONE');
#140 = DATE_AND_TIME ( #155, #77 ) ;
#141 = CARTESIAN_POINT ( 'NONE',  ( 25.00000000000000000, 3.061616997868383043E-15, 5.000000000000000000 ) ) ;
#142 = AXIS2_PLACEMENT_3D ( 'NONE', #149, #166, #60 ) ;
#143 = PERSON_AND_ORGANIZATION_ROLE ( 'creator' ) ;
#144 = DATE_TIME_ROLE ( 'creation_date' ) ;
#145 = CC_DESIGN_PERSON_AND_ORGANIZATION_ASSIGNMENT ( #94, #137, ( #167 ) ) ;
#146 = DATE_AND_TIME ( #16, #86 ) ;
#147 = DATE_AND_TIME ( #4, #31 ) ;
#148 =( GEOMETRIC_REPRESENTATION_CONTEXT ( 3 ) GLOBAL_UNCERTAINTY_ASSIGNED_CONTEXT ( ( #139 ) ) GLOBAL_UNIT_ASSIGNED_CONTEXT ( ( #80, #82, #47 ) ) REPRESENTATION_CONTEXT ( 'NONE', 'WORKASPACE' ) );
#149 = CARTESIAN_POINT ( 'NONE',  ( 0.000000000000000000, 0.000000000000000000, 5.000000000000000000 ) ) ;
#150 = AXIS2_PLACEMENT_3D ( 'NONE', #25, #122, #113 ) ;
#151 = LINE ( 'NONE', #36, #68 ) ;
#152 = DIRECTION ( 'NONE',  ( 1.000000000000000000, 0.000000000000000000, 0.000000000000000000 ) ) ;
#153 = CC_DESIGN_PERSON_AND_ORGANIZATION_ASSIGNMENT ( #105, #163, ( #40 ) ) ;
#154 = CARTESIAN_POINT ( 'NONE',  ( -25.00000000000000000, 0.000000000000000000, 0.000000000000000000 ) ) ;
#155 = CALENDAR_DATE ( 2022, 27, 1 ) ;
#156 = MANIFOLD_SOLID_BREP ( 'Boss-Extrude1', #175 ) ;
#157 = DIRECTION ( 'NONE',  ( 0.000000000000000000, 0.000000000000000000, 1.000000000000000000 ) ) ;
#158 = DIRECTION ( 'NONE',  ( 1.000000000000000000, 0.000000000000000000, 0.000000000000000000 ) ) ;
#159 = PERSON_AND_ORGANIZATION ( #10, #52 ) ;
#160 = CC_DESIGN_PERSON_AND_ORGANIZATION_ASSIGNMENT ( #63, #143, ( #79 ) ) ;
#161 = CC_DESIGN_DATE_AND_TIME_ASSIGNMENT ( #146, #29, ( #40 ) ) ;
#162 = COORDINATED_UNIVERSAL_TIME_OFFSET ( 5, 0, .BEHIND. ) ;
#163 = PERSON_AND_ORGANIZATION_ROLE ( 'classification_officer' ) ;
#164 = APPROVAL_ROLE ( '' ) ;
#165 = ORIENTED_EDGE ( 'NONE', *, *, #32, .F. ) ;
#166 = DIRECTION ( 'NONE',  ( -0.000000000000000000, -0.000000000000000000, -1.000000000000000000 ) ) ;
#167 = PRODUCT ( 'Web Model 19841_19844', 'Web Model 19841_19844', '', ( #48 ) ) ;
#168 = CARTESIAN_POINT ( 'NONE',  ( 0.000000000000000000, 0.000000000000000000, 5.000000000000000000 ) ) ;
#169 = ORIENTED_EDGE ( 'NONE', *, *, #107, .F. ) ;
#170 = PERSON_AND_ORGANIZATION ( #10, #52 ) ;
#171 = AXIS2_PLACEMENT_3D ( 'NONE', #26, #13, #112 ) ;
#172 = PLANE ( 'NONE',  #150 ) ;
#173 = DIRECTION ( 'NONE',  ( 0.000000000000000000, 0.000000000000000000, 1.000000000000000000 ) ) ;
#174 = EDGE_CURVE ( 'NONE', #108, #22, #64, .T. ) ;
#175 = CLOSED_SHELL ( 'NONE', ( #1, #135, #65, #11 ) ) ;
ENDSEC;
END-ISO-10303-21;
