ISO-10303-21;
HEADER;
FILE_DESCRIPTION (( 'STEP AP203' ),
    '1' );
FILE_NAME ('Web Model 66188.STEP',
    '2017-01-31T19:34:32',
    ( '' ),
    ( '' ),
    'SwSTEP 2.0',
    'SolidWorks 2016',
    '' );
FILE_SCHEMA (( 'CONFIG_CONTROL_DESIGN' ));
ENDSEC;

DATA;
#1 = ADVANCED_FACE ( 'NONE', ( #81 ), #27, .T. ) ;
#2 = CARTESIAN_POINT ( 'NONE',  ( 12.50000000000000000, 1.530808498934191500E-015, 0.0000000000000000000 ) ) ;
#3 = CARTESIAN_POINT ( 'NONE',  ( -12.50000000000000000, 0.0000000000000000000, 0.2000000000000000100 ) ) ;
#4 = DIRECTION ( 'NONE',  ( 1.000000000000000000, 0.0000000000000000000, 0.0000000000000000000 ) ) ;
#5 = CALENDAR_DATE ( 2017, 31, 1 ) ;
#6 = APPROVAL_ROLE ( '' ) ;
#7 = APPROVAL_STATUS ( 'not_yet_approved' ) ;
#8 = APPROVAL_PERSON_ORGANIZATION ( #90, #55, #43 ) ;
#9 = LOCAL_TIME ( 14, 34, 32.00000000000000000, #40 ) ;
#10 = CIRCLE ( 'NONE', #48, 12.50000000000000000 ) ;
#11 = DATE_AND_TIME ( #131, #113 ) ;
#12 = AXIS2_PLACEMENT_3D ( 'NONE', #15, #66, #145 ) ;
#13 = PERSON_AND_ORGANIZATION ( #152, #159 ) ;
#14 = ORIENTED_EDGE ( 'NONE', *, *, #97, .F. ) ;
#15 = CARTESIAN_POINT ( 'NONE',  ( 0.0000000000000000000, 0.0000000000000000000, 0.2000000000000000100 ) ) ;
#16 = CYLINDRICAL_SURFACE ( 'NONE', #92, 12.50000000000000000 ) ;
#17 = CARTESIAN_POINT ( 'NONE',  ( 12.50000000000000000, 1.530808498934191500E-015, 0.2000000000000000100 ) ) ;
#18 = APPROVAL_ROLE ( '' ) ;
#19 = COORDINATED_UNIVERSAL_TIME_OFFSET ( 5, 0, .BEHIND. ) ;
#20 = ORIENTED_EDGE ( 'NONE', *, *, #97, .T. ) ;
#21 = EDGE_LOOP ( 'NONE', ( #156, #53, #20, #160 ) ) ;
#22 = CC_DESIGN_PERSON_AND_ORGANIZATION_ASSIGNMENT ( #32, #106, ( #142 ) ) ;
#23 = MANIFOLD_SOLID_BREP ( 'Extrude1', #126 ) ;
#24 = VERTEX_POINT ( 'NONE', #122 ) ;
#25 = ORIENTED_EDGE ( 'NONE', *, *, #163, .F. ) ;
#26 = ADVANCED_FACE ( 'NONE', ( #36 ), #75, .T. ) ;
#27 = PLANE ( 'NONE',  #73 ) ;
#28 = COORDINATED_UNIVERSAL_TIME_OFFSET ( 5, 0, .BEHIND. ) ;
#29 = DIRECTION ( 'NONE',  ( 0.0000000000000000000, 0.0000000000000000000, 1.000000000000000000 ) ) ;
#30 = DIRECTION ( 'NONE',  ( -0.0000000000000000000, -0.0000000000000000000, -1.000000000000000000 ) ) ;
#31 =( NAMED_UNIT ( * ) SI_UNIT ( $, .STERADIAN. ) SOLID_ANGLE_UNIT ( ) );
#32 = PERSON_AND_ORGANIZATION ( #152, #159 ) ;
#33 = PERSON_AND_ORGANIZATION_ROLE ( 'creator' ) ;
#34 = APPLICATION_PROTOCOL_DEFINITION ( 'international standard', 'config_control_design', 1994, #125 ) ;
#35 = PERSON_AND_ORGANIZATION ( #152, #159 ) ;
#36 = FACE_OUTER_BOUND ( 'NONE', #21, .T. ) ;
#37 = APPROVAL_STATUS ( 'not_yet_approved' ) ;
#38 = DATE_AND_TIME ( #70, #67 ) ;
#39 = ADVANCED_FACE ( 'NONE', ( #84 ), #16, .T. ) ;
#40 = COORDINATED_UNIVERSAL_TIME_OFFSET ( 5, 0, .BEHIND. ) ;
#41 = CC_DESIGN_APPROVAL ( #55, ( #146 ) ) ;
#42 = CARTESIAN_POINT ( 'NONE',  ( 0.0000000000000000000, 0.0000000000000000000, 0.2000000000000000100 ) ) ;
#43 = APPROVAL_ROLE ( '' ) ;
#44 = APPROVAL_DATE_TIME ( #38, #88 ) ;
#45 = CIRCLE ( 'NONE', #138, 12.50000000000000000 ) ;
#46 = CC_DESIGN_DATE_AND_TIME_ASSIGNMENT ( #101, #139, ( #142 ) ) ;
#47 = PERSON_AND_ORGANIZATION ( #152, #159 ) ;
#48 = AXIS2_PLACEMENT_3D ( 'NONE', #103, #29, #68 ) ;
#49 = LINE ( 'NONE', #3, #109 ) ;
#50 = EDGE_LOOP ( 'NONE', ( #168, #150 ) ) ;
#51 = ORIENTED_EDGE ( 'NONE', *, *, #99, .T. ) ;
#52 = APPROVAL_DATE_TIME ( #118, #55 ) ;
#53 = ORIENTED_EDGE ( 'NONE', *, *, #76, .F. ) ;
#54 =( LENGTH_UNIT ( ) NAMED_UNIT ( * ) SI_UNIT ( .MILLI., .METRE. ) );
#55 = APPROVAL ( #7, 'UNSPECIFIED' ) ;
#56 = DIRECTION ( 'NONE',  ( 1.000000000000000000, 0.0000000000000000000, 0.0000000000000000000 ) ) ;
#57 = FACE_OUTER_BOUND ( 'NONE', #155, .T. ) ;
#58 = MECHANICAL_CONTEXT ( 'NONE', #125, 'mechanical' ) ;
#59 = EDGE_LOOP ( 'NONE', ( #120, #51, #89, #14 ) ) ;
#60 = AXIS2_PLACEMENT_3D ( 'NONE', #91, #93, #124 ) ;
#61 = CIRCLE ( 'NONE', #71, 12.50000000000000000 ) ;
#62 = EDGE_CURVE ( 'NONE', #132, #171, #45, .T. ) ;
#63 = LOCAL_TIME ( 14, 34, 32.00000000000000000, #175 ) ;
#64 = SHAPE_DEFINITION_REPRESENTATION ( #96, #83 ) ;
#65 = PLANE ( 'NONE',  #154 ) ;
#66 = DIRECTION ( 'NONE',  ( -0.0000000000000000000, -0.0000000000000000000, -1.000000000000000000 ) ) ;
#67 = LOCAL_TIME ( 14, 34, 32.00000000000000000, #28 ) ;
#68 = DIRECTION ( 'NONE',  ( 1.000000000000000000, 0.0000000000000000000, 0.0000000000000000000 ) ) ;
#69 = PERSON_AND_ORGANIZATION ( #152, #159 ) ;
#70 = CALENDAR_DATE ( 2017, 31, 1 ) ;
#71 = AXIS2_PLACEMENT_3D ( 'NONE', #135, #87, #4 ) ;
#72 = VECTOR ( 'NONE', #123, 1000.000000000000000 ) ;
#73 = AXIS2_PLACEMENT_3D ( 'NONE', #42, #147, #121 ) ;
#74 = APPROVAL_PERSON_ORGANIZATION ( #13, #88, #18 ) ;
#75 = CYLINDRICAL_SURFACE ( 'NONE', #12, 12.50000000000000000 ) ;
#76 = EDGE_CURVE ( 'NONE', #171, #132, #10, .T. ) ;
#77 = CARTESIAN_POINT ( 'NONE',  ( 0.0000000000000000000, 0.0000000000000000000, 0.2000000000000000100 ) ) ;
#78 = APPLICATION_CONTEXT ( 'configuration controlled 3d designs of mechanical parts and assemblies' ) ;
#79 = PERSON_AND_ORGANIZATION_ROLE ( 'classification_officer' ) ;
#80 = ORIENTED_EDGE ( 'NONE', *, *, #119, .F. ) ;
#81 = FACE_OUTER_BOUND ( 'NONE', #50, .T. ) ;
#82 = AXIS2_PLACEMENT_3D ( 'NONE', #149, #141, #127 ) ;
#83 = ADVANCED_BREP_SHAPE_REPRESENTATION ( 'Web Model 66188', ( #23, #82 ), #165 ) ;
#84 = FACE_OUTER_BOUND ( 'NONE', #59, .T. ) ;
#85 = APPROVAL_DATE_TIME ( #144, #172 ) ;
#86 = PRODUCT_DEFINITION_FORMATION_WITH_SPECIFIED_SOURCE ( 'ANY', '', #111, .NOT_KNOWN. ) ;
#87 = DIRECTION ( 'NONE',  ( 0.0000000000000000000, 0.0000000000000000000, 1.000000000000000000 ) ) ;
#88 = APPROVAL ( #108, 'UNSPECIFIED' ) ;
#89 = ORIENTED_EDGE ( 'NONE', *, *, #119, .T. ) ;
#90 = PERSON_AND_ORGANIZATION ( #152, #159 ) ;
#91 = CARTESIAN_POINT ( 'NONE',  ( 0.0000000000000000000, 0.0000000000000000000, 0.0000000000000000000 ) ) ;
#92 = AXIS2_PLACEMENT_3D ( 'NONE', #77, #30, #166 ) ;
#93 = DIRECTION ( 'NONE',  ( 0.0000000000000000000, 0.0000000000000000000, 1.000000000000000000 ) ) ;
#94 =( NAMED_UNIT ( * ) PLANE_ANGLE_UNIT ( ) SI_UNIT ( $, .RADIAN. ) );
#95 = CC_DESIGN_PERSON_AND_ORGANIZATION_ASSIGNMENT ( #47, #151, ( #111 ) ) ;
#96 = PRODUCT_DEFINITION_SHAPE ( 'NONE', 'NONE',  #142 ) ;
#97 = EDGE_CURVE ( 'NONE', #171, #24, #49, .T. ) ;
#98 = CC_DESIGN_DATE_AND_TIME_ASSIGNMENT ( #11, #128, ( #146 ) ) ;
#99 = EDGE_CURVE ( 'NONE', #132, #129, #116, .T. ) ;
#100 = CARTESIAN_POINT ( 'NONE',  ( 0.0000000000000000000, 0.0000000000000000000, 0.0000000000000000000 ) ) ;
#101 = DATE_AND_TIME ( #143, #9 ) ;
#102 = DIRECTION ( 'NONE',  ( 0.0000000000000000000, 0.0000000000000000000, 1.000000000000000000 ) ) ;
#103 = CARTESIAN_POINT ( 'NONE',  ( 0.0000000000000000000, 0.0000000000000000000, 0.2000000000000000100 ) ) ;
#104 = CARTESIAN_POINT ( 'NONE',  ( 0.0000000000000000000, 0.0000000000000000000, 0.2000000000000000100 ) ) ;
#105 = CARTESIAN_POINT ( 'NONE',  ( 12.50000000000000000, 1.530808498934191500E-015, 0.2000000000000000100 ) ) ;
#106 = PERSON_AND_ORGANIZATION_ROLE ( 'creator' ) ;
#107 = APPLICATION_PROTOCOL_DEFINITION ( 'international standard', 'config_control_design', 1994, #78 ) ;
#108 = APPROVAL_STATUS ( 'not_yet_approved' ) ;
#109 = VECTOR ( 'NONE', #134, 1000.000000000000000 ) ;
#110 = PERSON_AND_ORGANIZATION_ROLE ( 'design_supplier' ) ;
#111 = PRODUCT ( 'Web Model 66188', 'Web Model 66188', '', ( #58 ) ) ;
#112 = CC_DESIGN_APPROVAL ( #172, ( #86 ) ) ;
#113 = LOCAL_TIME ( 14, 34, 32.00000000000000000, #19 ) ;
#114 = CIRCLE ( 'NONE', #60, 12.50000000000000000 ) ;
#115 = PERSON_AND_ORGANIZATION ( #152, #159 ) ;
#116 = LINE ( 'NONE', #17, #72 ) ;
#117 = CC_DESIGN_SECURITY_CLASSIFICATION ( #146, ( #86 ) ) ;
#118 = DATE_AND_TIME ( #173, #148 ) ;
#119 = EDGE_CURVE ( 'NONE', #129, #24, #114, .T. ) ;
#120 = ORIENTED_EDGE ( 'NONE', *, *, #62, .F. ) ;
#121 = DIRECTION ( 'NONE',  ( 1.000000000000000000, 0.0000000000000000000, -0.0000000000000000000 ) ) ;
#122 = CARTESIAN_POINT ( 'NONE',  ( -12.50000000000000000, 0.0000000000000000000, 0.0000000000000000000 ) ) ;
#123 = DIRECTION ( 'NONE',  ( -0.0000000000000000000, -0.0000000000000000000, -1.000000000000000000 ) ) ;
#124 = DIRECTION ( 'NONE',  ( 1.000000000000000000, 0.0000000000000000000, 0.0000000000000000000 ) ) ;
#125 = APPLICATION_CONTEXT ( 'configuration controlled 3d designs of mechanical parts and assemblies' ) ;
#126 = CLOSED_SHELL ( 'NONE', ( #39, #26, #1, #161 ) ) ;
#127 = DIRECTION ( 'NONE',  ( 1.000000000000000000, 0.0000000000000000000, 0.0000000000000000000 ) ) ;
#128 = DATE_TIME_ROLE ( 'classification_date' ) ;
#129 = VERTEX_POINT ( 'NONE', #2 ) ;
#130 = PRODUCT_RELATED_PRODUCT_CATEGORY ( 'detail', '', ( #111 ) ) ;
#131 = CALENDAR_DATE ( 2017, 31, 1 ) ;
#132 = VERTEX_POINT ( 'NONE', #105 ) ;
#133 = APPROVAL_PERSON_ORGANIZATION ( #35, #172, #6 ) ;
#134 = DIRECTION ( 'NONE',  ( -0.0000000000000000000, -0.0000000000000000000, -1.000000000000000000 ) ) ;
#135 = CARTESIAN_POINT ( 'NONE',  ( 0.0000000000000000000, 0.0000000000000000000, 0.0000000000000000000 ) ) ;
#136 = COORDINATED_UNIVERSAL_TIME_OFFSET ( 5, 0, .BEHIND. ) ;
#137 = SECURITY_CLASSIFICATION_LEVEL ( 'unclassified' ) ;
#138 = AXIS2_PLACEMENT_3D ( 'NONE', #104, #102, #56 ) ;
#139 = DATE_TIME_ROLE ( 'creation_date' ) ;
#140 = CC_DESIGN_PERSON_AND_ORGANIZATION_ASSIGNMENT ( #115, #33, ( #86 ) ) ;
#141 = DIRECTION ( 'NONE',  ( 0.0000000000000000000, 0.0000000000000000000, 1.000000000000000000 ) ) ;
#142 = PRODUCT_DEFINITION ( 'UNKNOWN', '', #86, #153 ) ;
#143 = CALENDAR_DATE ( 2017, 31, 1 ) ;
#144 = DATE_AND_TIME ( #5, #63 ) ;
#145 = DIRECTION ( 'NONE',  ( -1.000000000000000000, 0.0000000000000000000, 0.0000000000000000000 ) ) ;
#146 = SECURITY_CLASSIFICATION ( '', '', #137 ) ;
#147 = DIRECTION ( 'NONE',  ( 0.0000000000000000000, 0.0000000000000000000, 1.000000000000000000 ) ) ;
#148 = LOCAL_TIME ( 14, 34, 32.00000000000000000, #136 ) ;
#149 = CARTESIAN_POINT ( 'NONE',  ( 0.0000000000000000000, 0.0000000000000000000, 0.0000000000000000000 ) ) ;
#150 = ORIENTED_EDGE ( 'NONE', *, *, #62, .T. ) ;
#151 = PERSON_AND_ORGANIZATION_ROLE ( 'design_owner' ) ;
#152 = PERSON ( 'UNSPECIFIED', 'UNSPECIFIED', 'UNSPECIFIED', ('UNSPECIFIED'), ('UNSPECIFIED'), ('UNSPECIFIED') ) ;
#153 = DESIGN_CONTEXT ( 'detailed design', #78, 'design' ) ;
#154 = AXIS2_PLACEMENT_3D ( 'NONE', #100, #164, #167 ) ;
#155 = EDGE_LOOP ( 'NONE', ( #25, #80 ) ) ;
#156 = ORIENTED_EDGE ( 'NONE', *, *, #99, .F. ) ;
#157 = CC_DESIGN_PERSON_AND_ORGANIZATION_ASSIGNMENT ( #158, #110, ( #86 ) ) ;
#158 = PERSON_AND_ORGANIZATION ( #152, #159 ) ;
#159 = ORGANIZATION ( 'UNSPECIFIED', 'UNSPECIFIED', '' ) ;
#160 = ORIENTED_EDGE ( 'NONE', *, *, #163, .T. ) ;
#161 = ADVANCED_FACE ( 'NONE', ( #57 ), #65, .F. ) ;
#162 = CC_DESIGN_APPROVAL ( #88, ( #142 ) ) ;
#163 = EDGE_CURVE ( 'NONE', #24, #129, #61, .T. ) ;
#164 = DIRECTION ( 'NONE',  ( 0.0000000000000000000, 0.0000000000000000000, 1.000000000000000000 ) ) ;
#165 =( GEOMETRIC_REPRESENTATION_CONTEXT ( 3 ) GLOBAL_UNCERTAINTY_ASSIGNED_CONTEXT ( ( #170 ) ) GLOBAL_UNIT_ASSIGNED_CONTEXT ( ( #54, #94, #31 ) ) REPRESENTATION_CONTEXT ( 'NONE', 'WORKASPACE' ) );
#166 = DIRECTION ( 'NONE',  ( -1.000000000000000000, 0.0000000000000000000, 0.0000000000000000000 ) ) ;
#167 = DIRECTION ( 'NONE',  ( 1.000000000000000000, 0.0000000000000000000, -0.0000000000000000000 ) ) ;
#168 = ORIENTED_EDGE ( 'NONE', *, *, #76, .T. ) ;
#169 = CARTESIAN_POINT ( 'NONE',  ( -12.50000000000000000, 0.0000000000000000000, 0.2000000000000000100 ) ) ;
#170 = UNCERTAINTY_MEASURE_WITH_UNIT (LENGTH_MEASURE( 1.000000000000000100E-005 ), #54, 'distance_accuracy_value', 'NONE');
#171 = VERTEX_POINT ( 'NONE', #169 ) ;
#172 = APPROVAL ( #37, 'UNSPECIFIED' ) ;
#173 = CALENDAR_DATE ( 2017, 31, 1 ) ;
#174 = CC_DESIGN_PERSON_AND_ORGANIZATION_ASSIGNMENT ( #69, #79, ( #146 ) ) ;
#175 = COORDINATED_UNIVERSAL_TIME_OFFSET ( 5, 0, .BEHIND. ) ;
ENDSEC;
END-ISO-10303-21;
