ISO-10303-21;
HEADER;
FILE_DESCRIPTION (( 'STEP AP203' ),
    '1' );
FILE_NAME ('TTN162604-E0W.STEP',
    '2019-10-24T13:59:51',
    ( '' ),
    ( '' ),
    'SwSTEP 2.0',
    'SolidWorks 2018',
    '' );
FILE_SCHEMA (( 'CONFIG_CONTROL_DESIGN' ));
ENDSEC;

DATA;
#1 = ADVANCED_FACE ( 'NONE', ( #149 ), #266, .T. ) ;
#2 = EDGE_LOOP ( 'NONE', ( #230, #161, #118 ) ) ;
#3 = DIRECTION ( 'NONE',  ( -1.000000000000000000, 0.0000000000000000000, 0.0000000000000000000 ) ) ;
#4 = CARTESIAN_POINT ( 'NONE',  ( 0.6920925359686369571, 2.005987325010496036, 0.6282453767315924198 ) ) ;
#5 = CARTESIAN_POINT ( 'NONE',  ( 0.6920925359686369571, 2.005987325010496036, 2.279245376731592998 ) ) ;
#6 = ADVANCED_FACE ( 'NONE', ( #25 ), #38, .T. ) ;
#7 = MECHANICAL_CONTEXT ( 'NONE', #104, 'mechanical' ) ;
#8 = PERSON_AND_ORGANIZATION_ROLE ( 'design_supplier' ) ;
#9 = CARTESIAN_POINT ( 'NONE',  ( 0.6920925359686369571, 2.005987325010496036, 3.319358471808115940 ) ) ;
#10 = AXIS2_PLACEMENT_3D ( 'NONE', #215, #83, #125 ) ;
#11 = CIRCLE ( 'NONE', #243, 1.500000000000000222 ) ;
#12 = VERTEX_POINT ( 'NONE', #71 ) ;
#13 = DATE_AND_TIME ( #84, #78 ) ;
#14 = ORIENTED_EDGE ( 'NONE', *, *, #23, .T. ) ;
#15 = CC_DESIGN_PERSON_AND_ORGANIZATION_ASSIGNMENT ( #141, #57, ( #260 ) ) ;
#16 = LINE ( 'NONE', #223, #130 ) ;
#17 = ORIENTED_EDGE ( 'NONE', *, *, #39, .F. ) ;
#18 = COORDINATED_UNIVERSAL_TIME_OFFSET ( 5, 0, .BEHIND. ) ;
#19 = CARTESIAN_POINT ( 'NONE',  ( 0.6920925359686369571, 2.005987325010496036, 3.319358471808115940 ) ) ;
#20 = DIRECTION ( 'NONE',  ( 0.0000000000000000000, -1.000000000000000000, 0.0000000000000000000 ) ) ;
#21 = DIRECTION ( 'NONE',  ( 0.0000000000000000000, 5.923799415417704456E-17, -1.000000000000000000 ) ) ;
#22 = DESIGN_CONTEXT ( 'detailed design', #293, 'design' ) ;
#23 = EDGE_CURVE ( 'NONE', #240, #177, #267, .T. ) ;
#24 = DIRECTION ( 'NONE',  ( 0.0000000000000000000, 1.000000000000000000, 0.0000000000000000000 ) ) ;
#25 = FACE_OUTER_BOUND ( 'NONE', #105, .T. ) ;
#26 = DIRECTION ( 'NONE',  ( -0.0000000000000000000, -5.923799415417704456E-17, 1.000000000000000000 ) ) ;
#27 = CC_DESIGN_APPROVAL ( #244, ( #32 ) ) ;
#28 = CARTESIAN_POINT ( 'NONE',  ( 0.6920925359686371792, 0.5059873250104955922, 3.319358471808115940 ) ) ;
#29 = CARTESIAN_POINT ( 'NONE',  ( 0.6920925359686369571, 0.5559873250104957476, 2.229245376731592287 ) ) ;
#30 = ORIENTED_EDGE ( 'NONE', *, *, #229, .F. ) ;
#31 = APPROVAL_STATUS ( 'not_yet_approved' ) ;
#32 = PRODUCT_DEFINITION_FORMATION_WITH_SPECIFIED_SOURCE ( 'ANY', '', #102, .NOT_KNOWN. ) ;
#33 = EDGE_LOOP ( 'NONE', ( #35, #245, #49, #60 ) ) ;
#34 = APPROVAL_STATUS ( 'not_yet_approved' ) ;
#35 = ORIENTED_EDGE ( 'NONE', *, *, #120, .F. ) ;
#36 = AXIS2_PLACEMENT_3D ( 'NONE', #178, #109, #301 ) ;
#37 = VERTEX_POINT ( 'NONE', #205 ) ;
#38 = CONICAL_SURFACE ( 'NONE', #36, 1.500000000000000222, 0.7853981633974482790 ) ;
#39 = EDGE_CURVE ( 'NONE', #248, #281, #16, .T. ) ;
#40 = EDGE_LOOP ( 'NONE', ( #255, #155, #286, #197 ) ) ;
#41 = DIRECTION ( 'NONE',  ( -1.000000000000000000, 1.224646799147353207E-16, 7.254561992882253793E-33 ) ) ;
#42 = FACE_OUTER_BOUND ( 'NONE', #33, .T. ) ;
#43 = CC_DESIGN_APPROVAL ( #156, ( #282 ) ) ;
#44 = CARTESIAN_POINT ( 'NONE',  ( 0.6920925359686369571, 2.005987325010496036, 2.279245376731592998 ) ) ;
#45 = CALENDAR_DATE ( 2019, 24, 10 ) ;
#46 = CARTESIAN_POINT ( 'NONE',  ( 0.6920925359686369571, 2.005987325010496036, 2.229245376731592287 ) ) ;
#47 = DIRECTION ( 'NONE',  ( -0.0000000000000000000, -5.923799415417704456E-17, 1.000000000000000000 ) ) ;
#48 = LINE ( 'NONE', #50, #165 ) ;
#49 = ORIENTED_EDGE ( 'NONE', *, *, #297, .T. ) ;
#50 = CARTESIAN_POINT ( 'NONE',  ( 0.6920925359686369571, 0.5059873250104955922, 2.279245376731592554 ) ) ;
#51 = AXIS2_PLACEMENT_3D ( 'NONE', #9, #173, #216 ) ;
#52 = APPROVAL_DATE_TIME ( #137, #274 ) ;
#53 = LINE ( 'NONE', #28, #201 ) ;
#54 = DATE_TIME_ROLE ( 'creation_date' ) ;
#55 = DIRECTION ( 'NONE',  ( -0.0000000000000000000, -5.923799415417704456E-17, 1.000000000000000000 ) ) ;
#56 = UNCERTAINTY_MEASURE_WITH_UNIT (LENGTH_MEASURE( 1.000000000000000082E-05 ), #171, 'distance_accuracy_value', 'NONE');
#57 = PERSON_AND_ORGANIZATION_ROLE ( 'creator' ) ;
#58 = APPROVAL_DATE_TIME ( #170, #244 ) ;
#59 = FACE_OUTER_BOUND ( 'NONE', #40, .T. ) ;
#60 = ORIENTED_EDGE ( 'NONE', *, *, #86, .F. ) ;
#61 = EDGE_CURVE ( 'NONE', #248, #95, #70, .T. ) ;
#62 = FACE_OUTER_BOUND ( 'NONE', #221, .T. ) ;
#63 = CC_DESIGN_DATE_AND_TIME_ASSIGNMENT ( #129, #290, ( #282 ) ) ;
#64 = EDGE_CURVE ( 'NONE', #88, #37, #117, .T. ) ;
#65 = PERSON_AND_ORGANIZATION ( #196, #272 ) ;
#66 = CIRCLE ( 'NONE', #51, 1.500000000000000222 ) ;
#67 = CLOSED_SHELL ( 'NONE', ( #6, #160, #79, #180, #188, #226, #251, #212, #1 ) ) ;
#68 = CARTESIAN_POINT ( 'NONE',  ( 0.6920925359686369571, 2.005987325010496036, 2.229245376731592287 ) ) ;
#69 = PERSON_AND_ORGANIZATION ( #196, #272 ) ;
#70 = CIRCLE ( 'NONE', #224, 1.450000000000000178 ) ;
#71 = CARTESIAN_POINT ( 'NONE',  ( 0.6920925359686369571, 0.5059873250104955922, 2.279245376731592998 ) ) ;
#72 = DIRECTION ( 'NONE',  ( 0.0000000000000000000, -5.923799415417704456E-17, 1.000000000000000000 ) ) ;
#73 = LOCAL_TIME ( 9, 59, 51.00000000000000000, #295 ) ;
#74 = ORIENTED_EDGE ( 'NONE', *, *, #297, .F. ) ;
#75 = DIRECTION ( 'NONE',  ( 8.659560562354913137E-17, -0.7071067811865460184, -0.7071067811865489050 ) ) ;
#76 = CARTESIAN_POINT ( 'NONE',  ( 0.6920925359686369571, 0.5059873250104955922, 3.319358471808115940 ) ) ;
#77 = CARTESIAN_POINT ( 'NONE',  ( 0.6920925359686369571, 3.455987325010496214, 3.369358471808116207 ) ) ;
#78 = LOCAL_TIME ( 9, 59, 51.00000000000000000, #123 ) ;
#79 = ADVANCED_FACE ( 'NONE', ( #42 ), #299, .T. ) ;
#80 = ORIENTED_EDGE ( 'NONE', *, *, #145, .T. ) ;
#81 = PERSON_AND_ORGANIZATION_ROLE ( 'classification_officer' ) ;
#82 = CC_DESIGN_SECURITY_CLASSIFICATION ( #282, ( #32 ) ) ;
#83 = DIRECTION ( 'NONE',  ( 0.0000000000000000000, 5.923799415417704456E-17, -1.000000000000000000 ) ) ;
#84 = CALENDAR_DATE ( 2019, 24, 10 ) ;
#85 = ORIENTED_EDGE ( 'NONE', *, *, #96, .T. ) ;
#86 = EDGE_CURVE ( 'NONE', #199, #240, #195, .T. ) ;
#87 = APPROVAL_ROLE ( '' ) ;
#88 = VERTEX_POINT ( 'NONE', #135 ) ;
#89 = CALENDAR_DATE ( 2019, 24, 10 ) ;
#90 = ORIENTED_EDGE ( 'NONE', *, *, #127, .F. ) ;
#91 = ORIENTED_EDGE ( 'NONE', *, *, #176, .T. ) ;
#92 = DIRECTION ( 'NONE',  ( -0.0000000000000000000, -5.923799415417704456E-17, 1.000000000000000000 ) ) ;
#93 = DIRECTION ( 'NONE',  ( 0.0000000000000000000, 5.923799415417704456E-17, -1.000000000000000000 ) ) ;
#94 = AXIS2_PLACEMENT_3D ( 'NONE', #4, #3, #167 ) ;
#95 = VERTEX_POINT ( 'NONE', #29 ) ;
#96 = EDGE_CURVE ( 'NONE', #281, #240, #147, .T. ) ;
#97 = CARTESIAN_POINT ( 'NONE',  ( 0.6920925359686369571, 2.005987325010496036, 0.6282453767315924198 ) ) ;
#98 = DIRECTION ( 'NONE',  ( 1.000000000000000000, 0.0000000000000000000, 0.0000000000000000000 ) ) ;
#99 = PERSON_AND_ORGANIZATION_ROLE ( 'design_owner' ) ;
#100 = ORIENTED_EDGE ( 'NONE', *, *, #61, .F. ) ;
#101 = PERSON_AND_ORGANIZATION ( #196, #272 ) ;
#102 = PRODUCT ( 'TTN162604-E0W', 'TTN162604-E0W', '', ( #7 ) ) ;
#103 =( GEOMETRIC_REPRESENTATION_CONTEXT ( 3 ) GLOBAL_UNCERTAINTY_ASSIGNED_CONTEXT ( ( #56 ) ) GLOBAL_UNIT_ASSIGNED_CONTEXT ( ( #171, #198, #239 ) ) REPRESENTATION_CONTEXT ( 'NONE', 'WORKASPACE' ) );
#104 = APPLICATION_CONTEXT ( 'configuration controlled 3d designs of mechanical parts and assemblies' ) ;
#105 = EDGE_LOOP ( 'NONE', ( #100, #138, #128, #158 ) ) ;
#106 = FACE_OUTER_BOUND ( 'NONE', #261, .T. ) ;
#107 = ORIENTED_EDGE ( 'NONE', *, *, #112, .T. ) ;
#108 = DIRECTION ( 'NONE',  ( 0.0000000000000000000, 0.7071067811865460184, -0.7071067811865489050 ) ) ;
#109 = DIRECTION ( 'NONE',  ( -0.0000000000000000000, -5.923799415417704456E-17, 1.000000000000000000 ) ) ;
#110 = CARTESIAN_POINT ( 'NONE',  ( 0.6920925359686369571, 2.005987325010496036, 0.6282453767315924198 ) ) ;
#111 = VECTOR ( 'NONE', #108, 1000.000000000000114 ) ;
#112 = EDGE_CURVE ( 'NONE', #199, #88, #254, .T. ) ;
#113 = DIRECTION ( 'NONE',  ( -1.000000000000000000, 0.0000000000000000000, 0.0000000000000000000 ) ) ;
#114 = PERSON_AND_ORGANIZATION ( #196, #272 ) ;
#115 = DIRECTION ( 'NONE',  ( 0.0000000000000000000, -1.000000000000000000, -5.923799415417704456E-17 ) ) ;
#116 = CC_DESIGN_PERSON_AND_ORGANIZATION_ASSIGNMENT ( #259, #99, ( #102 ) ) ;
#117 = CIRCLE ( 'NONE', #174, 3.100999999999999979 ) ;
#118 = ORIENTED_EDGE ( 'NONE', *, *, #152, .T. ) ;
#119 = DIRECTION ( 'NONE',  ( 0.0000000000000000000, -1.000000000000000000, 0.0000000000000000000 ) ) ;
#120 = EDGE_CURVE ( 'NONE', #88, #199, #238, .T. ) ;
#121 = CARTESIAN_POINT ( 'NONE',  ( 0.6920925359686369571, 2.005987325010496036, 2.229245376731592287 ) ) ;
#122 = DIRECTION ( 'NONE',  ( 0.0000000000000000000, -0.7071067811865474617, 0.7071067811865474617 ) ) ;
#123 = COORDINATED_UNIVERSAL_TIME_OFFSET ( 5, 0, .BEHIND. ) ;
#124 = FACE_OUTER_BOUND ( 'NONE', #211, .T. ) ;
#125 = DIRECTION ( 'NONE',  ( 0.0000000000000000000, 1.000000000000000000, 0.0000000000000000000 ) ) ;
#126 = DIRECTION ( 'NONE',  ( 0.0000000000000000000, 0.0000000000000000000, 1.000000000000000000 ) ) ;
#127 = EDGE_CURVE ( 'NONE', #281, #12, #11, .T. ) ;
#128 = ORIENTED_EDGE ( 'NONE', *, *, #202, .F. ) ;
#129 = DATE_AND_TIME ( #45, #291 ) ;
#130 = VECTOR ( 'NONE', #203, 1000.000000000000114 ) ;
#131 = ADVANCED_BREP_SHAPE_REPRESENTATION ( 'TTN162604-E0W', ( #151, #250 ), #103 ) ;
#132 = SHAPE_DEFINITION_REPRESENTATION ( #275, #131 ) ;
#133 = ORIENTED_EDGE ( 'NONE', *, *, #64, .T. ) ;
#134 = CC_DESIGN_DATE_AND_TIME_ASSIGNMENT ( #13, #54, ( #260 ) ) ;
#135 = CARTESIAN_POINT ( 'NONE',  ( 0.6920925359686371792, 0.5559873250104955256, 3.369358471808116207 ) ) ;
#136 = EDGE_CURVE ( 'NONE', #88, #177, #53, .T. ) ;
#137 = DATE_AND_TIME ( #89, #276 ) ;
#138 = ORIENTED_EDGE ( 'NONE', *, *, #39, .T. ) ;
#139 = DIRECTION ( 'NONE',  ( 0.0000000000000000000, -1.000000000000000000, 0.0000000000000000000 ) ) ;
#140 = CC_DESIGN_PERSON_AND_ORGANIZATION_ASSIGNMENT ( #300, #81, ( #282 ) ) ;
#141 = PERSON_AND_ORGANIZATION ( #196, #272 ) ;
#142 = CARTESIAN_POINT ( 'NONE',  ( 0.6920925359686369571, 2.005987325010496036, 3.369358471808116207 ) ) ;
#143 = DIRECTION ( 'NONE',  ( 0.0000000000000000000, -1.000000000000000000, 0.0000000000000000000 ) ) ;
#144 = ORIENTED_EDGE ( 'NONE', *, *, #86, .T. ) ;
#145 = EDGE_CURVE ( 'NONE', #95, #12, #48, .T. ) ;
#146 = COORDINATED_UNIVERSAL_TIME_OFFSET ( 5, 0, .BEHIND. ) ;
#147 = LINE ( 'NONE', #231, #289 ) ;
#148 = CARTESIAN_POINT ( 'NONE',  ( 0.6920925359686371792, 3.505987325010496480, 2.279245376731592998 ) ) ;
#149 = FACE_OUTER_BOUND ( 'NONE', #153, .T. ) ;
#150 = CARTESIAN_POINT ( 'NONE',  ( 0.6920925359686371792, 3.455987325010495770, 2.229245376731592287 ) ) ;
#151 = MANIFOLD_SOLID_BREP ( 'TTN162278-1-solid1', #67 ) ;
#152 = EDGE_CURVE ( 'NONE', #199, #37, #214, .T. ) ;
#153 = EDGE_LOOP ( 'NONE', ( #17, #278, #80, #90 ) ) ;
#154 = AXIS2_PLACEMENT_3D ( 'NONE', #249, #92, #20 ) ;
#155 = ORIENTED_EDGE ( 'NONE', *, *, #127, .T. ) ;
#156 = APPROVAL ( #263, 'UNSPECIFIED' ) ;
#157 = AXIS2_PLACEMENT_3D ( 'NONE', #19, #247, #139 ) ;
#158 = ORIENTED_EDGE ( 'NONE', *, *, #145, .F. ) ;
#159 = CARTESIAN_POINT ( 'NONE',  ( 0.6920925359686369571, 3.505987325010496480, 3.319358471808115940 ) ) ;
#160 = ADVANCED_FACE ( 'NONE', ( #62 ), #175, .T. ) ;
#161 = ORIENTED_EDGE ( 'NONE', *, *, #120, .T. ) ;
#162 = LOCAL_TIME ( 9, 59, 51.00000000000000000, #18 ) ;
#163 = DIRECTION ( 'NONE',  ( -0.0000000000000000000, -5.923799415417704456E-17, 1.000000000000000000 ) ) ;
#164 = CC_DESIGN_APPROVAL ( #274, ( #260 ) ) ;
#165 = VECTOR ( 'NONE', #122, 1000.000000000000114 ) ;
#166 = ORIENTED_EDGE ( 'NONE', *, *, #202, .T. ) ;
#167 = DIRECTION ( 'NONE',  ( 0.0000000000000000000, 1.000000000000000000, 6.992597049245432859E-17 ) ) ;
#168 = APPROVAL_ROLE ( '' ) ;
#169 = AXIS2_PLACEMENT_3D ( 'NONE', #142, #163, #186 ) ;
#170 = DATE_AND_TIME ( #225, #73 ) ;
#171 =( LENGTH_UNIT ( ) NAMED_UNIT ( * ) SI_UNIT ( .MILLI., .METRE. ) );
#172 = APPLICATION_PROTOCOL_DEFINITION ( 'international standard', 'config_control_design', 1994, #293 ) ;
#173 = DIRECTION ( 'NONE',  ( -0.0000000000000000000, -5.923799415417704456E-17, 1.000000000000000000 ) ) ;
#174 = AXIS2_PLACEMENT_3D ( 'NONE', #110, #41, #283 ) ;
#175 = SPHERICAL_SURFACE ( 'NONE', #206, 3.100999999999999979 ) ;
#176 = EDGE_CURVE ( 'NONE', #95, #248, #228, .T. ) ;
#177 = VERTEX_POINT ( 'NONE', #76 ) ;
#178 = CARTESIAN_POINT ( 'NONE',  ( 0.6920925359686369571, 2.005987325010496036, 2.279245376731592554 ) ) ;
#179 = VECTOR ( 'NONE', #55, 1000.000000000000000 ) ;
#180 = ADVANCED_FACE ( 'NONE', ( #106 ), #183, .T. ) ;
#181 = CC_DESIGN_PERSON_AND_ORGANIZATION_ASSIGNMENT ( #65, #8, ( #32 ) ) ;
#182 = DIRECTION ( 'NONE',  ( -0.0000000000000000000, -5.923799415417704456E-17, 1.000000000000000000 ) ) ;
#183 = CYLINDRICAL_SURFACE ( 'NONE', #237, 1.500000000000000222 ) ;
#184 = AXIS2_PLACEMENT_3D ( 'NONE', #222, #21, #24 ) ;
#185 = DIRECTION ( 'NONE',  ( 0.0000000000000000000, 5.923799415417704456E-17, -1.000000000000000000 ) ) ;
#186 = DIRECTION ( 'NONE',  ( 0.0000000000000000000, -1.000000000000000000, 0.0000000000000000000 ) ) ;
#187 = DIRECTION ( 'NONE',  ( -0.0000000000000000000, -5.923799415417704456E-17, 1.000000000000000000 ) ) ;
#188 = ADVANCED_FACE ( 'NONE', ( #285 ), #233, .F. ) ;
#189 = CYLINDRICAL_SURFACE ( 'NONE', #236, 1.500000000000000222 ) ;
#190 = APPROVAL_ROLE ( '' ) ;
#191 = DIRECTION ( 'NONE',  ( 1.000000000000000000, 0.0000000000000000000, 0.0000000000000000000 ) ) ;
#192 = AXIS2_PLACEMENT_3D ( 'NONE', #227, #26, #287 ) ;
#193 = CARTESIAN_POINT ( 'NONE',  ( 0.6920925359686371792, 3.505987325010496480, 3.319358471808115940 ) ) ;
#194 = PERSON_AND_ORGANIZATION ( #196, #272 ) ;
#195 = LINE ( 'NONE', #159, #111 ) ;
#196 = PERSON ( 'UNSPECIFIED', 'UNSPECIFIED', 'UNSPECIFIED', ('UNSPECIFIED'), ('UNSPECIFIED'), ('UNSPECIFIED') ) ;
#197 = ORIENTED_EDGE ( 'NONE', *, *, #23, .F. ) ;
#198 =( NAMED_UNIT ( * ) PLANE_ANGLE_UNIT ( ) SI_UNIT ( $, .RADIAN. ) );
#199 = VERTEX_POINT ( 'NONE', #77 ) ;
#200 = PRODUCT_RELATED_PRODUCT_CATEGORY ( 'detail', '', ( #102 ) ) ;
#201 = VECTOR ( 'NONE', #75, 1000.000000000000114 ) ;
#202 = EDGE_CURVE ( 'NONE', #12, #281, #277, .T. ) ;
#203 = DIRECTION ( 'NONE',  ( 8.659560562354932858E-17, 0.7071067811865474617, 0.7071067811865474617 ) ) ;
#204 = ORIENTED_EDGE ( 'NONE', *, *, #152, .F. ) ;
#205 = CARTESIAN_POINT ( 'NONE',  ( 0.6920925359686369571, 2.005987325010496036, 3.729245376731592287 ) ) ;
#206 = AXIS2_PLACEMENT_3D ( 'NONE', #97, #113, #210 ) ;
#207 = ORIENTED_EDGE ( 'NONE', *, *, #136, .F. ) ;
#208 = DATE_AND_TIME ( #232, #162 ) ;
#209 = DIRECTION ( 'NONE',  ( 0.0000000000000000000, -1.000000000000000000, 0.0000000000000000000 ) ) ;
#210 = DIRECTION ( 'NONE',  ( 0.0000000000000000000, 1.000000000000000000, 6.992597049245432859E-17 ) ) ;
#211 = EDGE_LOOP ( 'NONE', ( #207, #219, #144, #14 ) ) ;
#212 = ADVANCED_FACE ( 'NONE', ( #218 ), #296, .T. ) ;
#213 = DIRECTION ( 'NONE',  ( -0.0000000000000000000, -5.923799415417704456E-17, 1.000000000000000000 ) ) ;
#214 = CIRCLE ( 'NONE', #217, 3.100999999999999979 ) ;
#215 = CARTESIAN_POINT ( 'NONE',  ( 0.6920925359686369571, 2.005987325010496036, 3.319358471808115940 ) ) ;
#216 = DIRECTION ( 'NONE',  ( 0.0000000000000000000, -1.000000000000000000, 0.0000000000000000000 ) ) ;
#217 = AXIS2_PLACEMENT_3D ( 'NONE', #288, #98, #258 ) ;
#218 = FACE_OUTER_BOUND ( 'NONE', #2, .T. ) ;
#219 = ORIENTED_EDGE ( 'NONE', *, *, #112, .F. ) ;
#220 = EDGE_LOOP ( 'NONE', ( #91, #273 ) ) ;
#221 = EDGE_LOOP ( 'NONE', ( #107, #133, #204 ) ) ;
#222 = CARTESIAN_POINT ( 'NONE',  ( 0.6920925359686369571, 2.005987325010496036, 3.319358471808115940 ) ) ;
#223 = CARTESIAN_POINT ( 'NONE',  ( 0.6920925359686371792, 3.505987325010496480, 2.279245376731592554 ) ) ;
#224 = AXIS2_PLACEMENT_3D ( 'NONE', #68, #93, #280 ) ;
#225 = CALENDAR_DATE ( 2019, 24, 10 ) ;
#226 = ADVANCED_FACE ( 'NONE', ( #59 ), #189, .T. ) ;
#227 = CARTESIAN_POINT ( 'NONE',  ( 0.6920925359686369571, 2.005987325010496036, 3.369358471808116207 ) ) ;
#228 = CIRCLE ( 'NONE', #246, 1.450000000000000178 ) ;
#229 = EDGE_CURVE ( 'NONE', #12, #177, #242, .T. ) ;
#230 = ORIENTED_EDGE ( 'NONE', *, *, #64, .F. ) ;
#231 = CARTESIAN_POINT ( 'NONE',  ( 0.6920925359686371792, 3.505987325010496480, 3.729245376731592287 ) ) ;
#232 = CALENDAR_DATE ( 2019, 24, 10 ) ;
#233 = PLANE ( 'NONE',  #292 ) ;
#234 = DIRECTION ( 'NONE',  ( 0.0000000000000000000, -1.000000000000000000, 0.0000000000000000000 ) ) ;
#235 = CONICAL_SURFACE ( 'NONE', #10, 1.500000000000000444, 0.7853981633974461696 ) ;
#236 = AXIS2_PLACEMENT_3D ( 'NONE', #256, #213, #234 ) ;
#237 = AXIS2_PLACEMENT_3D ( 'NONE', #257, #182, #262 ) ;
#238 = CIRCLE ( 'NONE', #169, 1.450000000000000400 ) ;
#239 =( NAMED_UNIT ( * ) SI_UNIT ( $, .STERADIAN. ) SOLID_ANGLE_UNIT ( ) );
#240 = VERTEX_POINT ( 'NONE', #193 ) ;
#241 = APPROVAL_PERSON_ORGANIZATION ( #194, #274, #168 ) ;
#242 = LINE ( 'NONE', #294, #179 ) ;
#243 = AXIS2_PLACEMENT_3D ( 'NONE', #5, #187, #143 ) ;
#244 = APPROVAL ( #31, 'UNSPECIFIED' ) ;
#245 = ORIENTED_EDGE ( 'NONE', *, *, #136, .T. ) ;
#246 = AXIS2_PLACEMENT_3D ( 'NONE', #121, #185, #209 ) ;
#247 = DIRECTION ( 'NONE',  ( -0.0000000000000000000, -5.923799415417704456E-17, 1.000000000000000000 ) ) ;
#248 = VERTEX_POINT ( 'NONE', #150 ) ;
#249 = CARTESIAN_POINT ( 'NONE',  ( 0.6920925359686369571, 2.005987325010496036, 2.279245376731592554 ) ) ;
#250 = AXIS2_PLACEMENT_3D ( 'NONE', #268, #126, #191 ) ;
#251 = ADVANCED_FACE ( 'NONE', ( #124 ), #235, .T. ) ;
#252 = APPROVAL_PERSON_ORGANIZATION ( #69, #244, #190 ) ;
#253 = DIRECTION ( 'NONE',  ( -0.0000000000000000000, -5.923799415417704456E-17, 1.000000000000000000 ) ) ;
#254 = CIRCLE ( 'NONE', #192, 1.450000000000000400 ) ;
#255 = ORIENTED_EDGE ( 'NONE', *, *, #96, .F. ) ;
#256 = CARTESIAN_POINT ( 'NONE',  ( 0.6920925359686369571, 2.005987325010496036, 3.729245376731592287 ) ) ;
#257 = CARTESIAN_POINT ( 'NONE',  ( 0.6920925359686369571, 2.005987325010496036, 3.729245376731592287 ) ) ;
#258 = DIRECTION ( 'NONE',  ( 0.0000000000000000000, 0.0000000000000000000, -1.000000000000000000 ) ) ;
#259 = PERSON_AND_ORGANIZATION ( #196, #272 ) ;
#260 = PRODUCT_DEFINITION ( 'UNKNOWN', '', #32, #22 ) ;
#261 = EDGE_LOOP ( 'NONE', ( #166, #85, #74, #30 ) ) ;
#262 = DIRECTION ( 'NONE',  ( 0.0000000000000000000, -1.000000000000000000, 0.0000000000000000000 ) ) ;
#263 = APPROVAL_STATUS ( 'not_yet_approved' ) ;
#264 = PERSON_AND_ORGANIZATION_ROLE ( 'creator' ) ;
#265 = SECURITY_CLASSIFICATION_LEVEL ( 'unclassified' ) ;
#266 = CONICAL_SURFACE ( 'NONE', #154, 1.500000000000000222, 0.7853981633974482790 ) ;
#267 = CIRCLE ( 'NONE', #157, 1.500000000000000222 ) ;
#268 = CARTESIAN_POINT ( 'NONE',  ( 0.0000000000000000000, 0.0000000000000000000, 0.0000000000000000000 ) ) ;
#269 = APPROVAL_DATE_TIME ( #208, #156 ) ;
#270 = APPLICATION_PROTOCOL_DEFINITION ( 'international standard', 'config_control_design', 1994, #104 ) ;
#271 = AXIS2_PLACEMENT_3D ( 'NONE', #44, #47, #119 ) ;
#272 = ORGANIZATION ( 'UNSPECIFIED', 'UNSPECIFIED', '' ) ;
#273 = ORIENTED_EDGE ( 'NONE', *, *, #61, .T. ) ;
#274 = APPROVAL ( #34, 'UNSPECIFIED' ) ;
#275 = PRODUCT_DEFINITION_SHAPE ( 'NONE', 'NONE',  #260 ) ;
#276 = LOCAL_TIME ( 9, 59, 51.00000000000000000, #146 ) ;
#277 = CIRCLE ( 'NONE', #271, 1.500000000000000222 ) ;
#278 = ORIENTED_EDGE ( 'NONE', *, *, #176, .F. ) ;
#279 = CC_DESIGN_PERSON_AND_ORGANIZATION_ASSIGNMENT ( #114, #264, ( #32 ) ) ;
#280 = DIRECTION ( 'NONE',  ( 0.0000000000000000000, -1.000000000000000000, 0.0000000000000000000 ) ) ;
#281 = VERTEX_POINT ( 'NONE', #148 ) ;
#282 = SECURITY_CLASSIFICATION ( '', '', #265 ) ;
#283 = DIRECTION ( 'NONE',  ( -1.398519409849086572E-16, -1.000000000000000000, 0.0000000000000000000 ) ) ;
#284 = APPROVAL_PERSON_ORGANIZATION ( #101, #156, #87 ) ;
#285 = FACE_OUTER_BOUND ( 'NONE', #220, .T. ) ;
#286 = ORIENTED_EDGE ( 'NONE', *, *, #229, .T. ) ;
#287 = DIRECTION ( 'NONE',  ( 0.0000000000000000000, -1.000000000000000000, 0.0000000000000000000 ) ) ;
#288 = CARTESIAN_POINT ( 'NONE',  ( 0.6920925359686369571, 2.005987325010496036, 0.6282453767315924198 ) ) ;
#289 = VECTOR ( 'NONE', #253, 1000.000000000000000 ) ;
#290 = DATE_TIME_ROLE ( 'classification_date' ) ;
#291 = LOCAL_TIME ( 9, 59, 51.00000000000000000, #298 ) ;
#292 = AXIS2_PLACEMENT_3D ( 'NONE', #46, #72, #115 ) ;
#293 = APPLICATION_CONTEXT ( 'configuration controlled 3d designs of mechanical parts and assemblies' ) ;
#294 = CARTESIAN_POINT ( 'NONE',  ( 0.6920925359686369571, 0.5059873250104955922, 3.729245376731592287 ) ) ;
#295 = COORDINATED_UNIVERSAL_TIME_OFFSET ( 5, 0, .BEHIND. ) ;
#296 = SPHERICAL_SURFACE ( 'NONE', #94, 3.100999999999999979 ) ;
#297 = EDGE_CURVE ( 'NONE', #177, #240, #66, .T. ) ;
#298 = COORDINATED_UNIVERSAL_TIME_OFFSET ( 5, 0, .BEHIND. ) ;
#299 = CONICAL_SURFACE ( 'NONE', #184, 1.500000000000000444, 0.7853981633974461696 ) ;
#300 = PERSON_AND_ORGANIZATION ( #196, #272 ) ;
#301 = DIRECTION ( 'NONE',  ( 0.0000000000000000000, -1.000000000000000000, 0.0000000000000000000 ) ) ;
ENDSEC;
END-ISO-10303-21;
