ISO-10303-21;
HEADER;
FILE_DESCRIPTION (( 'STEP AP203' ),
    '1' );
FILE_NAME ('Web Model 20164_20164.step',
    '2022-03-23T13:08:03',
    ( '' ),
    ( '' ),
    'SwSTEP 2.0',
    'SolidWorks 2021',
    '' );
FILE_SCHEMA (( 'CONFIG_CONTROL_DESIGN' ));
ENDSEC;

DATA;
#1 = CYLINDRICAL_SURFACE ( 'NONE', #152, 2.499999999999999556 ) ;
#2 = CC_DESIGN_PERSON_AND_ORGANIZATION_ASSIGNMENT ( #50, #126, ( #61 ) ) ;
#3 = MECHANICAL_CONTEXT ( 'NONE', #101, 'mechanical' ) ;
#4 = SECURITY_CLASSIFICATION ( '', '', #137 ) ;
#5 = APPROVAL_STATUS ( 'not_yet_approved' ) ;
#6 = PERSON_AND_ORGANIZATION ( #98, #13 ) ;
#7 = APPROVAL_STATUS ( 'not_yet_approved' ) ;
#8 = APPROVAL ( #163, 'UNSPECIFIED' ) ;
#9 = ORIENTED_EDGE ( 'NONE', *, *, #162, .T. ) ;
#10 = MANIFOLD_SOLID_BREP ( 'Boss-Extrude1', #71 ) ;
#11 = PRODUCT ( 'Web Model 20164_20164', 'Web Model 20164_20164', '', ( #3 ) ) ;
#12 = DIRECTION ( 'NONE',  ( 1.000000000000000000, 0.000000000000000000, -0.000000000000000000 ) ) ;
#13 = ORGANIZATION ( 'UNSPECIFIED', 'UNSPECIFIED', '' ) ;
#14 = APPROVAL_PERSON_ORGANIZATION ( #88, #8, #32 ) ;
#15 = DIRECTION ( 'NONE',  ( -0.000000000000000000, -0.000000000000000000, -1.000000000000000000 ) ) ;
#16 = FACE_OUTER_BOUND ( 'NONE', #128, .T. ) ;
#17 = EDGE_CURVE ( 'NONE', #42, #25, #30, .T. ) ;
#18 = CARTESIAN_POINT ( 'NONE',  ( 0.000000000000000000, 0.000000000000000000, 1.000000000000000000 ) ) ;
#19 = CALENDAR_DATE ( 2022, 23, 3 ) ;
#20 = PERSON_AND_ORGANIZATION ( #98, #13 ) ;
#21 = AXIS2_PLACEMENT_3D ( 'NONE', #120, #79, #160 ) ;
#22 = CALENDAR_DATE ( 2022, 23, 3 ) ;
#23 = DATE_TIME_ROLE ( 'classification_date' ) ;
#24 = EDGE_CURVE ( 'NONE', #25, #26, #123, .T. ) ;
#25 = VERTEX_POINT ( 'NONE', #145 ) ;
#26 = VERTEX_POINT ( 'NONE', #103 ) ;
#27 = DIRECTION ( 'NONE',  ( -1.000000000000000000, 0.000000000000000000, 0.000000000000000000 ) ) ;
#28 = CARTESIAN_POINT ( 'NONE',  ( 0.000000000000000000, 0.000000000000000000, 1.000000000000000000 ) ) ;
#29 = DIRECTION ( 'NONE',  ( 1.000000000000000000, 0.000000000000000000, -0.000000000000000000 ) ) ;
#30 = LINE ( 'NONE', #47, #87 ) ;
#31 = AXIS2_PLACEMENT_3D ( 'NONE', #175, #150, #108 ) ;
#32 = APPROVAL_ROLE ( '' ) ;
#33 = CC_DESIGN_APPROVAL ( #8, ( #61 ) ) ;
#34 = CALENDAR_DATE ( 2022, 23, 3 ) ;
#35 = COORDINATED_UNIVERSAL_TIME_OFFSET ( 5, 0, .BEHIND. ) ;
#36 = PERSON_AND_ORGANIZATION_ROLE ( 'creator' ) ;
#37 = DATE_AND_TIME ( #19, #39 ) ;
#38 = CC_DESIGN_PERSON_AND_ORGANIZATION_ASSIGNMENT ( #6, #99, ( #130 ) ) ;
#39 = LOCAL_TIME ( 9, 8, 3.000000000000000000, #73 ) ;
#40 = LOCAL_TIME ( 9, 8, 3.000000000000000000, #135 ) ;
#41 = AXIS2_PLACEMENT_3D ( 'NONE', #144, #80, #58 ) ;
#42 = VERTEX_POINT ( 'NONE', #134 ) ;
#43 = DIRECTION ( 'NONE',  ( 0.000000000000000000, 0.000000000000000000, 1.000000000000000000 ) ) ;
#44 = CARTESIAN_POINT ( 'NONE',  ( 0.000000000000000000, 0.000000000000000000, 1.000000000000000000 ) ) ;
#45 = EDGE_CURVE ( 'NONE', #66, #42, #53, .T. ) ;
#46 = APPLICATION_PROTOCOL_DEFINITION ( 'international standard', 'config_control_design', 1994, #101 ) ;
#47 = CARTESIAN_POINT ( 'NONE',  ( 2.499999999999999556, 3.061616997868382648E-16, 1.000000000000000000 ) ) ;
#48 = PERSON_AND_ORGANIZATION ( #98, #13 ) ;
#49 = CALENDAR_DATE ( 2022, 23, 3 ) ;
#50 = PERSON_AND_ORGANIZATION ( #98, #13 ) ;
#51 = EDGE_CURVE ( 'NONE', #42, #66, #104, .T. ) ;
#52 = ORIENTED_EDGE ( 'NONE', *, *, #117, .F. ) ;
#53 = CIRCLE ( 'NONE', #21, 2.499999999999999556 ) ;
#54 = FACE_OUTER_BOUND ( 'NONE', #92, .T. ) ;
#55 = DIRECTION ( 'NONE',  ( -0.000000000000000000, -0.000000000000000000, -1.000000000000000000 ) ) ;
#56 = CYLINDRICAL_SURFACE ( 'NONE', #142, 2.499999999999999556 ) ;
#57 = AXIS2_PLACEMENT_3D ( 'NONE', #116, #43, #106 ) ;
#58 = DIRECTION ( 'NONE',  ( 1.000000000000000000, 0.000000000000000000, 0.000000000000000000 ) ) ;
#59 = FACE_OUTER_BOUND ( 'NONE', #155, .T. ) ;
#60 = COORDINATED_UNIVERSAL_TIME_OFFSET ( 5, 0, .BEHIND. ) ;
#61 = PRODUCT_DEFINITION_FORMATION_WITH_SPECIFIED_SOURCE ( 'ANY', '', #11, .NOT_KNOWN. ) ;
#62 = ADVANCED_FACE ( 'NONE', ( #59 ), #1, .T. ) ;
#63 = APPROVAL_DATE_TIME ( #37, #84 ) ;
#64 = COORDINATED_UNIVERSAL_TIME_OFFSET ( 5, 0, .BEHIND. ) ;
#65 = CC_DESIGN_DATE_AND_TIME_ASSIGNMENT ( #122, #23, ( #4 ) ) ;
#66 = VERTEX_POINT ( 'NONE', #172 ) ;
#67 =( NAMED_UNIT ( * ) SI_UNIT ( $, .STERADIAN. ) SOLID_ANGLE_UNIT ( ) );
#68 = DIRECTION ( 'NONE',  ( 1.000000000000000000, 0.000000000000000000, 0.000000000000000000 ) ) ;
#69 = CC_DESIGN_APPROVAL ( #143, ( #4 ) ) ;
#70 = CARTESIAN_POINT ( 'NONE',  ( -2.499999999999999556, 0.000000000000000000, 1.000000000000000000 ) ) ;
#71 = CLOSED_SHELL ( 'NONE', ( #62, #127, #151, #78 ) ) ;
#72 = DIRECTION ( 'NONE',  ( -0.000000000000000000, -0.000000000000000000, -1.000000000000000000 ) ) ;
#73 = COORDINATED_UNIVERSAL_TIME_OFFSET ( 5, 0, .BEHIND. ) ;
#74 = CC_DESIGN_PERSON_AND_ORGANIZATION_ASSIGNMENT ( #153, #161, ( #11 ) ) ;
#75 = DATE_AND_TIME ( #22, #40 ) ;
#76 = APPROVAL_DATE_TIME ( #149, #8 ) ;
#77 = PRODUCT_DEFINITION_SHAPE ( 'NONE', 'NONE',  #130 ) ;
#78 = ADVANCED_FACE ( 'NONE', ( #54 ), #95, .F. ) ;
#79 = DIRECTION ( 'NONE',  ( 0.000000000000000000, 0.000000000000000000, 1.000000000000000000 ) ) ;
#80 = DIRECTION ( 'NONE',  ( 0.000000000000000000, 0.000000000000000000, 1.000000000000000000 ) ) ;
#81 = CARTESIAN_POINT ( 'NONE',  ( 0.000000000000000000, 0.000000000000000000, 1.000000000000000000 ) ) ;
#82 = DIRECTION ( 'NONE',  ( -0.000000000000000000, -0.000000000000000000, -1.000000000000000000 ) ) ;
#83 =( GEOMETRIC_REPRESENTATION_CONTEXT ( 3 ) GLOBAL_UNCERTAINTY_ASSIGNED_CONTEXT ( ( #138 ) ) GLOBAL_UNIT_ASSIGNED_CONTEXT ( ( #118, #121, #67 ) ) REPRESENTATION_CONTEXT ( 'NONE', 'WORKASPACE' ) );
#84 = APPROVAL ( #5, 'UNSPECIFIED' ) ;
#85 = APPROVAL_ROLE ( '' ) ;
#86 = APPROVAL_ROLE ( '' ) ;
#87 = VECTOR ( 'NONE', #15, 1000.000000000000000 ) ;
#88 = PERSON_AND_ORGANIZATION ( #98, #13 ) ;
#89 = PERSON_AND_ORGANIZATION_ROLE ( 'classification_officer' ) ;
#90 = ORIENTED_EDGE ( 'NONE', *, *, #17, .T. ) ;
#91 = CIRCLE ( 'NONE', #41, 2.499999999999999556 ) ;
#92 = EDGE_LOOP ( 'NONE', ( #141, #173 ) ) ;
#93 = DIRECTION ( 'NONE',  ( 0.000000000000000000, 0.000000000000000000, 1.000000000000000000 ) ) ;
#94 = APPLICATION_CONTEXT ( 'configuration controlled 3d designs of mechanical parts and assemblies' ) ;
#95 = PLANE ( 'NONE',  #174 ) ;
#96 = CC_DESIGN_DATE_AND_TIME_ASSIGNMENT ( #109, #136, ( #130 ) ) ;
#97 = CALENDAR_DATE ( 2022, 23, 3 ) ;
#98 = PERSON ( 'UNSPECIFIED', 'UNSPECIFIED', 'UNSPECIFIED', ('UNSPECIFIED'), ('UNSPECIFIED'), ('UNSPECIFIED') ) ;
#99 = PERSON_AND_ORGANIZATION_ROLE ( 'creator' ) ;
#100 = AXIS2_PLACEMENT_3D ( 'NONE', #81, #113, #68 ) ;
#101 = APPLICATION_CONTEXT ( 'configuration controlled 3d designs of mechanical parts and assemblies' ) ;
#102 = ORIENTED_EDGE ( 'NONE', *, *, #45, .T. ) ;
#103 = CARTESIAN_POINT ( 'NONE',  ( -2.499999999999999556, 0.000000000000000000, 0.000000000000000000 ) ) ;
#104 = CIRCLE ( 'NONE', #100, 2.499999999999999556 ) ;
#105 = PLANE ( 'NONE',  #166 ) ;
#106 = DIRECTION ( 'NONE',  ( 1.000000000000000000, 0.000000000000000000, 0.000000000000000000 ) ) ;
#107 = APPROVAL_PERSON_ORGANIZATION ( #48, #84, #86 ) ;
#108 = DIRECTION ( 'NONE',  ( 1.000000000000000000, 0.000000000000000000, 0.000000000000000000 ) ) ;
#109 = DATE_AND_TIME ( #97, #154 ) ;
#110 = APPROVAL_DATE_TIME ( #75, #143 ) ;
#111 = PRODUCT_RELATED_PRODUCT_CATEGORY ( 'detail', '', ( #11 ) ) ;
#112 = ORIENTED_EDGE ( 'NONE', *, *, #45, .F. ) ;
#113 = DIRECTION ( 'NONE',  ( 0.000000000000000000, 0.000000000000000000, 1.000000000000000000 ) ) ;
#114 = CC_DESIGN_PERSON_AND_ORGANIZATION_ASSIGNMENT ( #167, #89, ( #4 ) ) ;
#115 = CC_DESIGN_SECURITY_CLASSIFICATION ( #4, ( #61 ) ) ;
#116 = CARTESIAN_POINT ( 'NONE',  ( 0.000000000000000000, 0.000000000000000000, 0.000000000000000000 ) ) ;
#117 = EDGE_CURVE ( 'NONE', #66, #26, #133, .T. ) ;
#118 =( LENGTH_UNIT ( ) NAMED_UNIT ( * ) SI_UNIT ( .MILLI., .METRE. ) );
#119 = VECTOR ( 'NONE', #82, 1000.000000000000000 ) ;
#120 = CARTESIAN_POINT ( 'NONE',  ( 0.000000000000000000, 0.000000000000000000, 1.000000000000000000 ) ) ;
#121 =( NAMED_UNIT ( * ) PLANE_ANGLE_UNIT ( ) SI_UNIT ( $, .RADIAN. ) );
#122 = DATE_AND_TIME ( #34, #164 ) ;
#123 = CIRCLE ( 'NONE', #57, 2.499999999999999556 ) ;
#124 = SHAPE_DEFINITION_REPRESENTATION ( #77, #159 ) ;
#125 = APPLICATION_PROTOCOL_DEFINITION ( 'international standard', 'config_control_design', 1994, #94 ) ;
#126 = PERSON_AND_ORGANIZATION_ROLE ( 'design_supplier' ) ;
#127 = ADVANCED_FACE ( 'NONE', ( #16 ), #56, .T. ) ;
#128 = EDGE_LOOP ( 'NONE', ( #129, #112, #139, #9 ) ) ;
#129 = ORIENTED_EDGE ( 'NONE', *, *, #17, .F. ) ;
#130 = PRODUCT_DEFINITION ( 'UNKNOWN', '', #61, #168 ) ;
#131 = FACE_OUTER_BOUND ( 'NONE', #140, .T. ) ;
#132 = CC_DESIGN_APPROVAL ( #84, ( #130 ) ) ;
#133 = LINE ( 'NONE', #70, #119 ) ;
#134 = CARTESIAN_POINT ( 'NONE',  ( 2.499999999999999556, 3.061616997868382648E-16, 1.000000000000000000 ) ) ;
#135 = COORDINATED_UNIVERSAL_TIME_OFFSET ( 5, 0, .BEHIND. ) ;
#136 = DATE_TIME_ROLE ( 'creation_date' ) ;
#137 = SECURITY_CLASSIFICATION_LEVEL ( 'unclassified' ) ;
#138 = UNCERTAINTY_MEASURE_WITH_UNIT (LENGTH_MEASURE( 1.000000000000000082E-05 ), #118, 'distance_accuracy_value', 'NONE');
#139 = ORIENTED_EDGE ( 'NONE', *, *, #117, .T. ) ;
#140 = EDGE_LOOP ( 'NONE', ( #102, #156 ) ) ;
#141 = ORIENTED_EDGE ( 'NONE', *, *, #162, .F. ) ;
#142 = AXIS2_PLACEMENT_3D ( 'NONE', #18, #72, #27 ) ;
#143 = APPROVAL ( #7, 'UNSPECIFIED' ) ;
#144 = CARTESIAN_POINT ( 'NONE',  ( 0.000000000000000000, 0.000000000000000000, 0.000000000000000000 ) ) ;
#145 = CARTESIAN_POINT ( 'NONE',  ( 2.499999999999999556, 3.061616997868382648E-16, 0.000000000000000000 ) ) ;
#146 = CARTESIAN_POINT ( 'NONE',  ( 0.000000000000000000, 0.000000000000000000, 0.000000000000000000 ) ) ;
#147 = CC_DESIGN_PERSON_AND_ORGANIZATION_ASSIGNMENT ( #165, #36, ( #61 ) ) ;
#148 = LOCAL_TIME ( 9, 8, 3.000000000000000000, #35 ) ;
#149 = DATE_AND_TIME ( #49, #148 ) ;
#150 = DIRECTION ( 'NONE',  ( 0.000000000000000000, 0.000000000000000000, 1.000000000000000000 ) ) ;
#151 = ADVANCED_FACE ( 'NONE', ( #131 ), #105, .T. ) ;
#152 = AXIS2_PLACEMENT_3D ( 'NONE', #28, #55, #170 ) ;
#153 = PERSON_AND_ORGANIZATION ( #98, #13 ) ;
#154 = LOCAL_TIME ( 9, 8, 3.000000000000000000, #60 ) ;
#155 = EDGE_LOOP ( 'NONE', ( #157, #90, #169, #52 ) ) ;
#156 = ORIENTED_EDGE ( 'NONE', *, *, #51, .T. ) ;
#157 = ORIENTED_EDGE ( 'NONE', *, *, #51, .F. ) ;
#158 = DIRECTION ( 'NONE',  ( 0.000000000000000000, 0.000000000000000000, 1.000000000000000000 ) ) ;
#159 = ADVANCED_BREP_SHAPE_REPRESENTATION ( 'Web Model 20164_20164', ( #10, #31 ), #83 ) ;
#160 = DIRECTION ( 'NONE',  ( 1.000000000000000000, 0.000000000000000000, 0.000000000000000000 ) ) ;
#161 = PERSON_AND_ORGANIZATION_ROLE ( 'design_owner' ) ;
#162 = EDGE_CURVE ( 'NONE', #26, #25, #91, .T. ) ;
#163 = APPROVAL_STATUS ( 'not_yet_approved' ) ;
#164 = LOCAL_TIME ( 9, 8, 3.000000000000000000, #64 ) ;
#165 = PERSON_AND_ORGANIZATION ( #98, #13 ) ;
#166 = AXIS2_PLACEMENT_3D ( 'NONE', #44, #93, #12 ) ;
#167 = PERSON_AND_ORGANIZATION ( #98, #13 ) ;
#168 = DESIGN_CONTEXT ( 'detailed design', #94, 'design' ) ;
#169 = ORIENTED_EDGE ( 'NONE', *, *, #24, .T. ) ;
#170 = DIRECTION ( 'NONE',  ( -1.000000000000000000, 0.000000000000000000, 0.000000000000000000 ) ) ;
#171 = APPROVAL_PERSON_ORGANIZATION ( #20, #143, #85 ) ;
#172 = CARTESIAN_POINT ( 'NONE',  ( -2.499999999999999556, 0.000000000000000000, 1.000000000000000000 ) ) ;
#173 = ORIENTED_EDGE ( 'NONE', *, *, #24, .F. ) ;
#174 = AXIS2_PLACEMENT_3D ( 'NONE', #146, #158, #29 ) ;
#175 = CARTESIAN_POINT ( 'NONE',  ( 0.000000000000000000, 0.000000000000000000, 0.000000000000000000 ) ) ;
ENDSEC;
END-ISO-10303-21;
