ISO-10303-21;
HEADER;
FILE_DESCRIPTION (( 'STEP AP203' ),
    '1' );
FILE_NAME ('Web Model 19841_19889.step',
    '2022-04-06T15:19:30',
    ( 'WC' ),
    ( 'Windows Central' ),
    'SwSTEP 2.0',
    'SolidWorks 2021',
    '' );
FILE_SCHEMA (( 'CONFIG_CONTROL_DESIGN' ));
ENDSEC;

DATA;
#1 = CARTESIAN_POINT ( 'NONE',  ( 25.00000000000000000, 3.061616997868383043E-15, 0.000000000000000000 ) ) ;
#2 = DIRECTION ( 'NONE',  ( -1.000000000000000000, 0.000000000000000000, 0.000000000000000000 ) ) ;
#3 = DIRECTION ( 'NONE',  ( 1.000000000000000000, 0.000000000000000000, 0.000000000000000000 ) ) ;
#4 = CC_DESIGN_PERSON_AND_ORGANIZATION_ASSIGNMENT ( #85, #21, ( #34 ) ) ;
#5 = DIRECTION ( 'NONE',  ( -1.000000000000000000, 0.000000000000000000, 0.000000000000000000 ) ) ;
#6 = COORDINATED_UNIVERSAL_TIME_OFFSET ( 5, 0, .BEHIND. ) ;
#7 = APPROVAL ( #128, 'UNSPECIFIED' ) ;
#8 = CC_DESIGN_APPROVAL ( #100, ( #79 ) ) ;
#9 = CARTESIAN_POINT ( 'NONE',  ( 25.00000000000000000, 3.061616997868383043E-15, 3.000000000000000000 ) ) ;
#10 = COORDINATED_UNIVERSAL_TIME_OFFSET ( 5, 0, .BEHIND. ) ;
#11 = ORIENTED_EDGE ( 'NONE', *, *, #51, .T. ) ;
#12 = UNCERTAINTY_MEASURE_WITH_UNIT (LENGTH_MEASURE( 1.000000000000000082E-05 ), #149, 'distance_accuracy_value', 'NONE');
#13 = DIRECTION ( 'NONE',  ( 1.000000000000000000, 0.000000000000000000, -0.000000000000000000 ) ) ;
#14 = AXIS2_PLACEMENT_3D ( 'NONE', #135, #50, #2 ) ;
#15 = CIRCLE ( 'NONE', #19, 25.00000000000000000 ) ;
#16 = FACE_OUTER_BOUND ( 'NONE', #126, .T. ) ;
#17 =( NAMED_UNIT ( * ) SI_UNIT ( $, .STERADIAN. ) SOLID_ANGLE_UNIT ( ) );
#18 = FACE_OUTER_BOUND ( 'NONE', #119, .T. ) ;
#19 = AXIS2_PLACEMENT_3D ( 'NONE', #115, #170, #56 ) ;
#20 = AXIS2_PLACEMENT_3D ( 'NONE', #123, #33, #3 ) ;
#21 = PERSON_AND_ORGANIZATION_ROLE ( 'classification_officer' ) ;
#22 = DATE_AND_TIME ( #59, #174 ) ;
#23 = VERTEX_POINT ( 'NONE', #9 ) ;
#24 = DATE_AND_TIME ( #103, #151 ) ;
#25 = PERSON_AND_ORGANIZATION ( #28, #116 ) ;
#26 = FACE_OUTER_BOUND ( 'NONE', #98, .T. ) ;
#27 = EDGE_CURVE ( 'NONE', #63, #144, #47, .T. ) ;
#28 = PERSON ( 'UNSPECIFIED', 'UNSPECIFIED', 'UNSPECIFIED', ('UNSPECIFIED'), ('UNSPECIFIED'), ('UNSPECIFIED') ) ;
#29 = LINE ( 'NONE', #136, #43 ) ;
#30 = APPROVAL_PERSON_ORGANIZATION ( #72, #108, #53 ) ;
#31 = PRODUCT_RELATED_PRODUCT_CATEGORY ( 'detail', '', ( #92 ) ) ;
#32 = DIRECTION ( 'NONE',  ( 0.000000000000000000, 0.000000000000000000, 1.000000000000000000 ) ) ;
#33 = DIRECTION ( 'NONE',  ( 0.000000000000000000, 0.000000000000000000, 1.000000000000000000 ) ) ;
#34 = SECURITY_CLASSIFICATION ( '', '', #40 ) ;
#35 = DATE_AND_TIME ( #172, #160 ) ;
#36 = ORIENTED_EDGE ( 'NONE', *, *, #51, .F. ) ;
#37 = CARTESIAN_POINT ( 'NONE',  ( 0.000000000000000000, 0.000000000000000000, 3.000000000000000000 ) ) ;
#38 = PERSON_AND_ORGANIZATION_ROLE ( 'creator' ) ;
#39 = EDGE_LOOP ( 'NONE', ( #11, #60 ) ) ;
#40 = SECURITY_CLASSIFICATION_LEVEL ( 'unclassified' ) ;
#41 = ORIENTED_EDGE ( 'NONE', *, *, #130, .T. ) ;
#42 = CC_DESIGN_APPROVAL ( #7, ( #78 ) ) ;
#43 = VECTOR ( 'NONE', #152, 1000.000000000000000 ) ;
#44 = ADVANCED_FACE ( 'NONE', ( #26 ), #84, .F. ) ;
#45 = DIRECTION ( 'NONE',  ( -0.000000000000000000, -0.000000000000000000, -1.000000000000000000 ) ) ;
#46 = CARTESIAN_POINT ( 'NONE',  ( 0.000000000000000000, 0.000000000000000000, 3.000000000000000000 ) ) ;
#47 = CIRCLE ( 'NONE', #65, 25.00000000000000000 ) ;
#48 = CARTESIAN_POINT ( 'NONE',  ( -25.00000000000000000, 0.000000000000000000, 3.000000000000000000 ) ) ;
#49 = DATE_AND_TIME ( #153, #69 ) ;
#50 = DIRECTION ( 'NONE',  ( -0.000000000000000000, -0.000000000000000000, -1.000000000000000000 ) ) ;
#51 = EDGE_CURVE ( 'NONE', #171, #23, #15, .T. ) ;
#52 = APPROVAL_ROLE ( '' ) ;
#53 = APPROVAL_ROLE ( '' ) ;
#54 = ORIENTED_EDGE ( 'NONE', *, *, #158, .T. ) ;
#55 = DESIGN_CONTEXT ( 'detailed design', #57, 'design' ) ;
#56 = DIRECTION ( 'NONE',  ( 1.000000000000000000, 0.000000000000000000, 0.000000000000000000 ) ) ;
#57 = APPLICATION_CONTEXT ( 'configuration controlled 3d designs of mechanical parts and assemblies' ) ;
#58 = CYLINDRICAL_SURFACE ( 'NONE', #14, 25.00000000000000000 ) ;
#59 = CALENDAR_DATE ( 2022, 6, 4 ) ;
#60 = ORIENTED_EDGE ( 'NONE', *, *, #107, .T. ) ;
#61 = APPROVAL_STATUS ( 'not_yet_approved' ) ;
#62 = DATE_TIME_ROLE ( 'creation_date' ) ;
#63 = VERTEX_POINT ( 'NONE', #71 ) ;
#64 = APPROVAL_PERSON_ORGANIZATION ( #76, #7, #52 ) ;
#65 = AXIS2_PLACEMENT_3D ( 'NONE', #117, #102, #156 ) ;
#66 = CC_DESIGN_DATE_AND_TIME_ASSIGNMENT ( #24, #150, ( #34 ) ) ;
#67 = ADVANCED_FACE ( 'NONE', ( #146 ), #81, .T. ) ;
#68 = DIRECTION ( 'NONE',  ( 1.000000000000000000, 0.000000000000000000, 0.000000000000000000 ) ) ;
#69 = LOCAL_TIME ( 11, 19, 30.00000000000000000, #10 ) ;
#70 = CC_DESIGN_PERSON_AND_ORGANIZATION_ASSIGNMENT ( #114, #167, ( #92 ) ) ;
#71 = CARTESIAN_POINT ( 'NONE',  ( -25.00000000000000000, 0.000000000000000000, 0.000000000000000000 ) ) ;
#72 = PERSON_AND_ORGANIZATION ( #28, #116 ) ;
#73 = APPROVAL_DATE_TIME ( #22, #108 ) ;
#74 = APPLICATION_CONTEXT ( 'configuration controlled 3d designs of mechanical parts and assemblies' ) ;
#75 = CC_DESIGN_DATE_AND_TIME_ASSIGNMENT ( #35, #62, ( #78 ) ) ;
#76 = PERSON_AND_ORGANIZATION ( #28, #116 ) ;
#77 = PERSON_AND_ORGANIZATION_ROLE ( 'design_supplier' ) ;
#78 = PRODUCT_DEFINITION ( 'UNKNOWN', '', #79, #55 ) ;
#79 = PRODUCT_DEFINITION_FORMATION_WITH_SPECIFIED_SOURCE ( 'ANY', '', #92, .NOT_KNOWN. ) ;
#80 = CYLINDRICAL_SURFACE ( 'NONE', #120, 25.00000000000000000 ) ;
#81 = PLANE ( 'NONE',  #131 ) ;
#82 = CC_DESIGN_SECURITY_CLASSIFICATION ( #34, ( #79 ) ) ;
#83 = COORDINATED_UNIVERSAL_TIME_OFFSET ( 5, 0, .BEHIND. ) ;
#84 = PLANE ( 'NONE',  #141 ) ;
#85 = PERSON_AND_ORGANIZATION ( #28, #116 ) ;
#86 = CARTESIAN_POINT ( 'NONE',  ( 0.000000000000000000, 0.000000000000000000, 0.000000000000000000 ) ) ;
#87 = APPLICATION_PROTOCOL_DEFINITION ( 'international standard', 'config_control_design', 1994, #57 ) ;
#88 = ORIENTED_EDGE ( 'NONE', *, *, #122, .T. ) ;
#89 =( GEOMETRIC_REPRESENTATION_CONTEXT ( 3 ) GLOBAL_UNCERTAINTY_ASSIGNED_CONTEXT ( ( #12 ) ) GLOBAL_UNIT_ASSIGNED_CONTEXT ( ( #149, #95, #17 ) ) REPRESENTATION_CONTEXT ( 'NONE', 'WORKASPACE' ) );
#90 = CLOSED_SHELL ( 'NONE', ( #132, #164, #67, #44 ) ) ;
#91 = MANIFOLD_SOLID_BREP ( 'Boss-Extrude1', #90 ) ;
#92 = PRODUCT ( 'Web Model 19841_19889', 'Web Model 19841_19889', '', ( #163 ) ) ;
#93 = LINE ( 'NONE', #48, #169 ) ;
#94 = CARTESIAN_POINT ( 'NONE',  ( 0.000000000000000000, 0.000000000000000000, 3.000000000000000000 ) ) ;
#95 =( NAMED_UNIT ( * ) PLANE_ANGLE_UNIT ( ) SI_UNIT ( $, .RADIAN. ) );
#96 = ADVANCED_BREP_SHAPE_REPRESENTATION ( 'Web Model 19841_19889', ( #91, #20 ), #89 ) ;
#97 = PERSON_AND_ORGANIZATION ( #28, #116 ) ;
#98 = EDGE_LOOP ( 'NONE', ( #129, #104 ) ) ;
#99 = DIRECTION ( 'NONE',  ( 1.000000000000000000, 0.000000000000000000, 0.000000000000000000 ) ) ;
#100 = APPROVAL ( #61, 'UNSPECIFIED' ) ;
#101 = PERSON_AND_ORGANIZATION_ROLE ( 'creator' ) ;
#102 = DIRECTION ( 'NONE',  ( 0.000000000000000000, 0.000000000000000000, 1.000000000000000000 ) ) ;
#103 = CALENDAR_DATE ( 2022, 6, 4 ) ;
#104 = ORIENTED_EDGE ( 'NONE', *, *, #122, .F. ) ;
#105 = APPROVAL_DATE_TIME ( #118, #100 ) ;
#106 = ORIENTED_EDGE ( 'NONE', *, *, #158, .F. ) ;
#107 = EDGE_CURVE ( 'NONE', #23, #171, #145, .T. ) ;
#108 = APPROVAL ( #125, 'UNSPECIFIED' ) ;
#109 = APPROVAL_PERSON_ORGANIZATION ( #25, #100, #140 ) ;
#110 = LOCAL_TIME ( 11, 19, 30.00000000000000000, #138 ) ;
#111 = DIRECTION ( 'NONE',  ( 1.000000000000000000, 0.000000000000000000, -0.000000000000000000 ) ) ;
#112 = APPLICATION_PROTOCOL_DEFINITION ( 'international standard', 'config_control_design', 1994, #74 ) ;
#113 = PRODUCT_DEFINITION_SHAPE ( 'NONE', 'NONE',  #78 ) ;
#114 = PERSON_AND_ORGANIZATION ( #28, #116 ) ;
#115 = CARTESIAN_POINT ( 'NONE',  ( 0.000000000000000000, 0.000000000000000000, 3.000000000000000000 ) ) ;
#116 = ORGANIZATION ( 'UNSPECIFIED', 'UNSPECIFIED', '' ) ;
#117 = CARTESIAN_POINT ( 'NONE',  ( 0.000000000000000000, 0.000000000000000000, 0.000000000000000000 ) ) ;
#118 = DATE_AND_TIME ( #165, #110 ) ;
#119 = EDGE_LOOP ( 'NONE', ( #173, #41, #88, #106 ) ) ;
#120 = AXIS2_PLACEMENT_3D ( 'NONE', #94, #45, #5 ) ;
#121 = DIRECTION ( 'NONE',  ( 0.000000000000000000, 0.000000000000000000, 1.000000000000000000 ) ) ;
#122 = EDGE_CURVE ( 'NONE', #144, #63, #133, .T. ) ;
#123 = CARTESIAN_POINT ( 'NONE',  ( 0.000000000000000000, 0.000000000000000000, 0.000000000000000000 ) ) ;
#124 = DIRECTION ( 'NONE',  ( 0.000000000000000000, 0.000000000000000000, 1.000000000000000000 ) ) ;
#125 = APPROVAL_STATUS ( 'not_yet_approved' ) ;
#126 = EDGE_LOOP ( 'NONE', ( #154, #36, #54, #175 ) ) ;
#127 = AXIS2_PLACEMENT_3D ( 'NONE', #46, #32, #68 ) ;
#128 = APPROVAL_STATUS ( 'not_yet_approved' ) ;
#129 = ORIENTED_EDGE ( 'NONE', *, *, #27, .F. ) ;
#130 = EDGE_CURVE ( 'NONE', #23, #144, #29, .T. ) ;
#131 = AXIS2_PLACEMENT_3D ( 'NONE', #37, #121, #111 ) ;
#132 = ADVANCED_FACE ( 'NONE', ( #18 ), #80, .T. ) ;
#133 = CIRCLE ( 'NONE', #161, 25.00000000000000000 ) ;
#134 = DIRECTION ( 'NONE',  ( -0.000000000000000000, -0.000000000000000000, -1.000000000000000000 ) ) ;
#135 = CARTESIAN_POINT ( 'NONE',  ( 0.000000000000000000, 0.000000000000000000, 3.000000000000000000 ) ) ;
#136 = CARTESIAN_POINT ( 'NONE',  ( 25.00000000000000000, 3.061616997868383043E-15, 3.000000000000000000 ) ) ;
#137 = CC_DESIGN_APPROVAL ( #108, ( #34 ) ) ;
#138 = COORDINATED_UNIVERSAL_TIME_OFFSET ( 5, 0, .BEHIND. ) ;
#139 = DIRECTION ( 'NONE',  ( 0.000000000000000000, 0.000000000000000000, 1.000000000000000000 ) ) ;
#140 = APPROVAL_ROLE ( '' ) ;
#141 = AXIS2_PLACEMENT_3D ( 'NONE', #86, #139, #13 ) ;
#142 = PERSON_AND_ORGANIZATION ( #28, #116 ) ;
#143 = CC_DESIGN_PERSON_AND_ORGANIZATION_ASSIGNMENT ( #97, #38, ( #79 ) ) ;
#144 = VERTEX_POINT ( 'NONE', #1 ) ;
#145 = CIRCLE ( 'NONE', #127, 25.00000000000000000 ) ;
#146 = FACE_OUTER_BOUND ( 'NONE', #39, .T. ) ;
#147 = CARTESIAN_POINT ( 'NONE',  ( -25.00000000000000000, 0.000000000000000000, 3.000000000000000000 ) ) ;
#148 = CARTESIAN_POINT ( 'NONE',  ( 0.000000000000000000, 0.000000000000000000, 0.000000000000000000 ) ) ;
#149 =( LENGTH_UNIT ( ) NAMED_UNIT ( * ) SI_UNIT ( .MILLI., .METRE. ) );
#150 = DATE_TIME_ROLE ( 'classification_date' ) ;
#151 = LOCAL_TIME ( 11, 19, 30.00000000000000000, #168 ) ;
#152 = DIRECTION ( 'NONE',  ( -0.000000000000000000, -0.000000000000000000, -1.000000000000000000 ) ) ;
#153 = CALENDAR_DATE ( 2022, 6, 4 ) ;
#154 = ORIENTED_EDGE ( 'NONE', *, *, #130, .F. ) ;
#155 = APPROVAL_DATE_TIME ( #49, #7 ) ;
#156 = DIRECTION ( 'NONE',  ( 1.000000000000000000, 0.000000000000000000, 0.000000000000000000 ) ) ;
#157 = PERSON_AND_ORGANIZATION ( #28, #116 ) ;
#158 = EDGE_CURVE ( 'NONE', #171, #63, #93, .T. ) ;
#159 = SHAPE_DEFINITION_REPRESENTATION ( #113, #96 ) ;
#160 = LOCAL_TIME ( 11, 19, 30.00000000000000000, #83 ) ;
#161 = AXIS2_PLACEMENT_3D ( 'NONE', #148, #124, #99 ) ;
#162 = CC_DESIGN_PERSON_AND_ORGANIZATION_ASSIGNMENT ( #142, #101, ( #78 ) ) ;
#163 = MECHANICAL_CONTEXT ( 'NONE', #74, 'mechanical' ) ;
#164 = ADVANCED_FACE ( 'NONE', ( #16 ), #58, .T. ) ;
#165 = CALENDAR_DATE ( 2022, 6, 4 ) ;
#166 = CC_DESIGN_PERSON_AND_ORGANIZATION_ASSIGNMENT ( #157, #77, ( #79 ) ) ;
#167 = PERSON_AND_ORGANIZATION_ROLE ( 'design_owner' ) ;
#168 = COORDINATED_UNIVERSAL_TIME_OFFSET ( 5, 0, .BEHIND. ) ;
#169 = VECTOR ( 'NONE', #134, 1000.000000000000000 ) ;
#170 = DIRECTION ( 'NONE',  ( 0.000000000000000000, 0.000000000000000000, 1.000000000000000000 ) ) ;
#171 = VERTEX_POINT ( 'NONE', #147 ) ;
#172 = CALENDAR_DATE ( 2022, 6, 4 ) ;
#173 = ORIENTED_EDGE ( 'NONE', *, *, #107, .F. ) ;
#174 = LOCAL_TIME ( 11, 19, 30.00000000000000000, #6 ) ;
#175 = ORIENTED_EDGE ( 'NONE', *, *, #27, .T. ) ;
ENDSEC;
END-ISO-10303-21;
