ISO-10303-21;
HEADER;
FILE_DESCRIPTION (( 'STEP AP203' ),
    '1' );
FILE_NAME ('Web Model 84457_48068.step',
    '2017-04-03T16:42:20',
    ( '' ),
    ( '' ),
    'SwSTEP 2.0',
    'SolidWorks 2016',
    '' );
FILE_SCHEMA (( 'CONFIG_CONTROL_DESIGN' ));
ENDSEC;

DATA;
#1 = EDGE_CURVE ( 'NONE', #107, #154, #2, .T. ) ;
#2 = CIRCLE ( 'NONE', #27, 20.00000000000000000 ) ;
#3 = EDGE_CURVE ( 'NONE', #107, #137, #39, .T. ) ;
#4 = ORIENTED_EDGE ( 'NONE', *, *, #62, .F. ) ;
#5 = EDGE_CURVE ( 'NONE', #154, #107, #16, .T. ) ;
#6 = CARTESIAN_POINT ( 'NONE',  ( 0.0000000000000000000, 0.0000000000000000000, 4.000000000000000000 ) ) ;
#7 = EDGE_CURVE ( 'NONE', #24, #137, #132, .T. ) ;
#8 = ADVANCED_FACE ( 'NONE', ( #56 ), #104, .T. ) ;
#9 = APPROVAL_DATE_TIME ( #44, #63 ) ;
#10 = CC_DESIGN_PERSON_AND_ORGANIZATION_ASSIGNMENT ( #77, #64, ( #161 ) ) ;
#11 =( NAMED_UNIT ( * ) PLANE_ANGLE_UNIT ( ) SI_UNIT ( $, .RADIAN. ) );
#12 = APPROVAL_PERSON_ORGANIZATION ( #49, #63, #81 ) ;
#13 = ORIENTED_EDGE ( 'NONE', *, *, #34, .F. ) ;
#14 = APPLICATION_CONTEXT ( 'configuration controlled 3d designs of mechanical parts and assemblies' ) ;
#15 = CARTESIAN_POINT ( 'NONE',  ( 0.0000000000000000000, 0.0000000000000000000, 4.000000000000000000 ) ) ;
#16 = CIRCLE ( 'NONE', #68, 20.00000000000000000 ) ;
#17 = SHAPE_DEFINITION_REPRESENTATION ( #31, #91 ) ;
#18 = DIRECTION ( 'NONE',  ( 1.000000000000000000, 0.0000000000000000000, -0.0000000000000000000 ) ) ;
#19 = DIRECTION ( 'NONE',  ( 0.0000000000000000000, 0.0000000000000000000, 1.000000000000000000 ) ) ;
#20 = DIRECTION ( 'NONE',  ( 0.0000000000000000000, 0.0000000000000000000, 1.000000000000000000 ) ) ;
#21 = MECHANICAL_CONTEXT ( 'NONE', #93, 'mechanical' ) ;
#22 = CC_DESIGN_DATE_AND_TIME_ASSIGNMENT ( #25, #71, ( #118 ) ) ;
#23 = CALENDAR_DATE ( 2017, 3, 4 ) ;
#24 = VERTEX_POINT ( 'NONE', #125 ) ;
#25 = DATE_AND_TIME ( #69, #110 ) ;
#26 = CC_DESIGN_PERSON_AND_ORGANIZATION_ASSIGNMENT ( #30, #66, ( #161 ) ) ;
#27 = AXIS2_PLACEMENT_3D ( 'NONE', #38, #108, #121 ) ;
#28 = CARTESIAN_POINT ( 'NONE',  ( 20.00000000000000000, 2.449293598294706500E-015, 4.000000000000000000 ) ) ;
#29 = VECTOR ( 'NONE', #40, 1000.000000000000000 ) ;
#30 = PERSON_AND_ORGANIZATION ( #155, #167 ) ;
#31 = PRODUCT_DEFINITION_SHAPE ( 'NONE', 'NONE',  #50 ) ;
#32 = CARTESIAN_POINT ( 'NONE',  ( 0.0000000000000000000, 0.0000000000000000000, 0.0000000000000000000 ) ) ;
#33 = AXIS2_PLACEMENT_3D ( 'NONE', #171, #19, #78 ) ;
#34 = EDGE_CURVE ( 'NONE', #137, #24, #116, .T. ) ;
#35 = DIRECTION ( 'NONE',  ( 1.000000000000000000, 0.0000000000000000000, 0.0000000000000000000 ) ) ;
#36 = LOCAL_TIME ( 12, 42, 20.00000000000000000, #80 ) ;
#37 = CC_DESIGN_PERSON_AND_ORGANIZATION_ASSIGNMENT ( #149, #140, ( #50 ) ) ;
#38 = CARTESIAN_POINT ( 'NONE',  ( 0.0000000000000000000, 0.0000000000000000000, 4.000000000000000000 ) ) ;
#39 = LINE ( 'NONE', #28, #29 ) ;
#40 = DIRECTION ( 'NONE',  ( -0.0000000000000000000, -0.0000000000000000000, -1.000000000000000000 ) ) ;
#41 = CALENDAR_DATE ( 2017, 3, 4 ) ;
#42 = ORIENTED_EDGE ( 'NONE', *, *, #7, .F. ) ;
#43 = DIRECTION ( 'NONE',  ( 0.0000000000000000000, 0.0000000000000000000, 1.000000000000000000 ) ) ;
#44 = DATE_AND_TIME ( #89, #122 ) ;
#45 = APPROVAL_STATUS ( 'not_yet_approved' ) ;
#46 = CC_DESIGN_PERSON_AND_ORGANIZATION_ASSIGNMENT ( #92, #153, ( #168 ) ) ;
#47 = CC_DESIGN_PERSON_AND_ORGANIZATION_ASSIGNMENT ( #165, #70, ( #118 ) ) ;
#48 = APPROVAL_ROLE ( '' ) ;
#49 = PERSON_AND_ORGANIZATION ( #155, #167 ) ;
#50 = PRODUCT_DEFINITION ( 'UNKNOWN', '', #161, #94 ) ;
#51 = DATE_TIME_ROLE ( 'creation_date' ) ;
#52 = APPROVAL ( #54, 'UNSPECIFIED' ) ;
#53 = EDGE_LOOP ( 'NONE', ( #172, #99, #142, #111 ) ) ;
#54 = APPROVAL_STATUS ( 'not_yet_approved' ) ;
#55 =( LENGTH_UNIT ( ) NAMED_UNIT ( * ) SI_UNIT ( .MILLI., .METRE. ) );
#56 = FACE_OUTER_BOUND ( 'NONE', #138, .T. ) ;
#57 = AXIS2_PLACEMENT_3D ( 'NONE', #96, #20, #124 ) ;
#58 = CARTESIAN_POINT ( 'NONE',  ( -20.00000000000000000, 0.0000000000000000000, 4.000000000000000000 ) ) ;
#59 = APPROVAL_ROLE ( '' ) ;
#60 = CARTESIAN_POINT ( 'NONE',  ( 20.00000000000000000, 2.449293598294706500E-015, 0.0000000000000000000 ) ) ;
#61 = CYLINDRICAL_SURFACE ( 'NONE', #120, 20.00000000000000000 ) ;
#62 = EDGE_CURVE ( 'NONE', #154, #24, #146, .T. ) ;
#63 = APPROVAL ( #45, 'UNSPECIFIED' ) ;
#64 = PERSON_AND_ORGANIZATION_ROLE ( 'creator' ) ;
#65 = LOCAL_TIME ( 12, 42, 20.00000000000000000, #106 ) ;
#66 = PERSON_AND_ORGANIZATION_ROLE ( 'design_supplier' ) ;
#67 = SECURITY_CLASSIFICATION_LEVEL ( 'unclassified' ) ;
#68 = AXIS2_PLACEMENT_3D ( 'NONE', #6, #115, #35 ) ;
#69 = CALENDAR_DATE ( 2017, 3, 4 ) ;
#70 = PERSON_AND_ORGANIZATION_ROLE ( 'classification_officer' ) ;
#71 = DATE_TIME_ROLE ( 'classification_date' ) ;
#72 = DIRECTION ( 'NONE',  ( -1.000000000000000000, 0.0000000000000000000, 0.0000000000000000000 ) ) ;
#73 = EDGE_LOOP ( 'NONE', ( #87, #95 ) ) ;
#74 = APPROVAL ( #76, 'UNSPECIFIED' ) ;
#75 = UNCERTAINTY_MEASURE_WITH_UNIT (LENGTH_MEASURE( 1.000000000000000100E-005 ), #55, 'distance_accuracy_value', 'NONE');
#76 = APPROVAL_STATUS ( 'not_yet_approved' ) ;
#77 = PERSON_AND_ORGANIZATION ( #155, #167 ) ;
#78 = DIRECTION ( 'NONE',  ( 1.000000000000000000, 0.0000000000000000000, 0.0000000000000000000 ) ) ;
#79 = FACE_OUTER_BOUND ( 'NONE', #159, .T. ) ;
#80 = COORDINATED_UNIVERSAL_TIME_OFFSET ( 5, 0, .BEHIND. ) ;
#81 = APPROVAL_ROLE ( '' ) ;
#82 = DIRECTION ( 'NONE',  ( -0.0000000000000000000, -0.0000000000000000000, -1.000000000000000000 ) ) ;
#83 = ADVANCED_FACE ( 'NONE', ( #79 ), #151, .F. ) ;
#84 = LOCAL_TIME ( 12, 42, 20.00000000000000000, #119 ) ;
#85 = DIRECTION ( 'NONE',  ( 0.0000000000000000000, 0.0000000000000000000, 1.000000000000000000 ) ) ;
#86 = MANIFOLD_SOLID_BREP ( 'Extrude1', #147 ) ;
#87 = ORIENTED_EDGE ( 'NONE', *, *, #5, .T. ) ;
#88 = CARTESIAN_POINT ( 'NONE',  ( -20.00000000000000000, 0.0000000000000000000, 4.000000000000000000 ) ) ;
#89 = CALENDAR_DATE ( 2017, 3, 4 ) ;
#90 = FACE_OUTER_BOUND ( 'NONE', #53, .T. ) ;
#91 = ADVANCED_BREP_SHAPE_REPRESENTATION ( 'Web Model 84457_48068', ( #86, #33 ), #141 ) ;
#92 = PERSON_AND_ORGANIZATION ( #155, #167 ) ;
#93 = APPLICATION_CONTEXT ( 'configuration controlled 3d designs of mechanical parts and assemblies' ) ;
#94 = DESIGN_CONTEXT ( 'detailed design', #14, 'design' ) ;
#95 = ORIENTED_EDGE ( 'NONE', *, *, #1, .T. ) ;
#96 = CARTESIAN_POINT ( 'NONE',  ( 0.0000000000000000000, 0.0000000000000000000, 0.0000000000000000000 ) ) ;
#97 = CC_DESIGN_APPROVAL ( #52, ( #161 ) ) ;
#98 = APPLICATION_PROTOCOL_DEFINITION ( 'international standard', 'config_control_design', 1994, #14 ) ;
#99 = ORIENTED_EDGE ( 'NONE', *, *, #5, .F. ) ;
#100 =( NAMED_UNIT ( * ) SI_UNIT ( $, .STERADIAN. ) SOLID_ANGLE_UNIT ( ) );
#101 = DIRECTION ( 'NONE',  ( 1.000000000000000000, 0.0000000000000000000, 0.0000000000000000000 ) ) ;
#102 = DIRECTION ( 'NONE',  ( -0.0000000000000000000, -0.0000000000000000000, -1.000000000000000000 ) ) ;
#103 = AXIS2_PLACEMENT_3D ( 'NONE', #136, #43, #18 ) ;
#104 = CYLINDRICAL_SURFACE ( 'NONE', #143, 20.00000000000000000 ) ;
#105 = APPLICATION_PROTOCOL_DEFINITION ( 'international standard', 'config_control_design', 1994, #93 ) ;
#106 = COORDINATED_UNIVERSAL_TIME_OFFSET ( 5, 0, .BEHIND. ) ;
#107 = VERTEX_POINT ( 'NONE', #148 ) ;
#108 = DIRECTION ( 'NONE',  ( 0.0000000000000000000, 0.0000000000000000000, 1.000000000000000000 ) ) ;
#109 = PRODUCT_RELATED_PRODUCT_CATEGORY ( 'detail', '', ( #168 ) ) ;
#110 = LOCAL_TIME ( 12, 42, 20.00000000000000000, #135 ) ;
#111 = ORIENTED_EDGE ( 'NONE', *, *, #7, .T. ) ;
#112 = ADVANCED_FACE ( 'NONE', ( #152 ), #170, .T. ) ;
#113 = APPROVAL_DATE_TIME ( #139, #52 ) ;
#114 = CARTESIAN_POINT ( 'NONE',  ( 0.0000000000000000000, 0.0000000000000000000, 4.000000000000000000 ) ) ;
#115 = DIRECTION ( 'NONE',  ( 0.0000000000000000000, 0.0000000000000000000, 1.000000000000000000 ) ) ;
#116 = CIRCLE ( 'NONE', #57, 20.00000000000000000 ) ;
#117 = APPROVAL_PERSON_ORGANIZATION ( #145, #52, #59 ) ;
#118 = SECURITY_CLASSIFICATION ( '', '', #67 ) ;
#119 = COORDINATED_UNIVERSAL_TIME_OFFSET ( 5, 0, .BEHIND. ) ;
#120 = AXIS2_PLACEMENT_3D ( 'NONE', #15, #82, #72 ) ;
#121 = DIRECTION ( 'NONE',  ( 1.000000000000000000, 0.0000000000000000000, 0.0000000000000000000 ) ) ;
#122 = LOCAL_TIME ( 12, 42, 20.00000000000000000, #150 ) ;
#123 = CARTESIAN_POINT ( 'NONE',  ( 0.0000000000000000000, 0.0000000000000000000, 4.000000000000000000 ) ) ;
#124 = DIRECTION ( 'NONE',  ( 1.000000000000000000, 0.0000000000000000000, 0.0000000000000000000 ) ) ;
#125 = CARTESIAN_POINT ( 'NONE',  ( -20.00000000000000000, 0.0000000000000000000, 0.0000000000000000000 ) ) ;
#126 = CC_DESIGN_APPROVAL ( #74, ( #118 ) ) ;
#127 = ORIENTED_EDGE ( 'NONE', *, *, #3, .T. ) ;
#128 = ORIENTED_EDGE ( 'NONE', *, *, #34, .T. ) ;
#129 = ADVANCED_FACE ( 'NONE', ( #90 ), #61, .T. ) ;
#130 = APPROVAL_DATE_TIME ( #157, #74 ) ;
#131 = AXIS2_PLACEMENT_3D ( 'NONE', #114, #85, #166 ) ;
#132 = CIRCLE ( 'NONE', #156, 20.00000000000000000 ) ;
#133 = DIRECTION ( 'NONE',  ( -1.000000000000000000, 0.0000000000000000000, 0.0000000000000000000 ) ) ;
#134 = APPROVAL_PERSON_ORGANIZATION ( #160, #74, #48 ) ;
#135 = COORDINATED_UNIVERSAL_TIME_OFFSET ( 5, 0, .BEHIND. ) ;
#136 = CARTESIAN_POINT ( 'NONE',  ( 0.0000000000000000000, 0.0000000000000000000, 0.0000000000000000000 ) ) ;
#137 = VERTEX_POINT ( 'NONE', #60 ) ;
#138 = EDGE_LOOP ( 'NONE', ( #158, #127, #128, #4 ) ) ;
#139 = DATE_AND_TIME ( #169, #36 ) ;
#140 = PERSON_AND_ORGANIZATION_ROLE ( 'creator' ) ;
#141 =( GEOMETRIC_REPRESENTATION_CONTEXT ( 3 ) GLOBAL_UNCERTAINTY_ASSIGNED_CONTEXT ( ( #75 ) ) GLOBAL_UNIT_ASSIGNED_CONTEXT ( ( #55, #11, #100 ) ) REPRESENTATION_CONTEXT ( 'NONE', 'WORKASPACE' ) );
#142 = ORIENTED_EDGE ( 'NONE', *, *, #62, .T. ) ;
#143 = AXIS2_PLACEMENT_3D ( 'NONE', #123, #102, #133 ) ;
#144 = CC_DESIGN_APPROVAL ( #63, ( #50 ) ) ;
#145 = PERSON_AND_ORGANIZATION ( #155, #167 ) ;
#146 = LINE ( 'NONE', #58, #163 ) ;
#147 = CLOSED_SHELL ( 'NONE', ( #8, #129, #112, #83 ) ) ;
#148 = CARTESIAN_POINT ( 'NONE',  ( 20.00000000000000000, 2.449293598294706500E-015, 4.000000000000000000 ) ) ;
#149 = PERSON_AND_ORGANIZATION ( #155, #167 ) ;
#150 = COORDINATED_UNIVERSAL_TIME_OFFSET ( 5, 0, .BEHIND. ) ;
#151 = PLANE ( 'NONE',  #103 ) ;
#152 = FACE_OUTER_BOUND ( 'NONE', #73, .T. ) ;
#153 = PERSON_AND_ORGANIZATION_ROLE ( 'design_owner' ) ;
#154 = VERTEX_POINT ( 'NONE', #88 ) ;
#155 = PERSON ( 'UNSPECIFIED', 'UNSPECIFIED', 'UNSPECIFIED', ('UNSPECIFIED'), ('UNSPECIFIED'), ('UNSPECIFIED') ) ;
#156 = AXIS2_PLACEMENT_3D ( 'NONE', #32, #175, #101 ) ;
#157 = DATE_AND_TIME ( #23, #65 ) ;
#158 = ORIENTED_EDGE ( 'NONE', *, *, #1, .F. ) ;
#159 = EDGE_LOOP ( 'NONE', ( #42, #13 ) ) ;
#160 = PERSON_AND_ORGANIZATION ( #155, #167 ) ;
#161 = PRODUCT_DEFINITION_FORMATION_WITH_SPECIFIED_SOURCE ( 'ANY', '', #168, .NOT_KNOWN. ) ;
#162 = DIRECTION ( 'NONE',  ( -0.0000000000000000000, -0.0000000000000000000, -1.000000000000000000 ) ) ;
#163 = VECTOR ( 'NONE', #162, 1000.000000000000000 ) ;
#164 = CC_DESIGN_SECURITY_CLASSIFICATION ( #118, ( #161 ) ) ;
#165 = PERSON_AND_ORGANIZATION ( #155, #167 ) ;
#166 = DIRECTION ( 'NONE',  ( 1.000000000000000000, 0.0000000000000000000, -0.0000000000000000000 ) ) ;
#167 = ORGANIZATION ( 'UNSPECIFIED', 'UNSPECIFIED', '' ) ;
#168 = PRODUCT ( 'Web Model 84457_48068', 'Web Model 84457_48068', '', ( #21 ) ) ;
#169 = CALENDAR_DATE ( 2017, 3, 4 ) ;
#170 = PLANE ( 'NONE',  #131 ) ;
#171 = CARTESIAN_POINT ( 'NONE',  ( 0.0000000000000000000, 0.0000000000000000000, 0.0000000000000000000 ) ) ;
#172 = ORIENTED_EDGE ( 'NONE', *, *, #3, .F. ) ;
#173 = CC_DESIGN_DATE_AND_TIME_ASSIGNMENT ( #174, #51, ( #50 ) ) ;
#174 = DATE_AND_TIME ( #41, #84 ) ;
#175 = DIRECTION ( 'NONE',  ( 0.0000000000000000000, 0.0000000000000000000, 1.000000000000000000 ) ) ;
ENDSEC;
END-ISO-10303-21;
