ISO-10303-21;
HEADER;
FILE_DESCRIPTION (( 'STEP AP203' ),
    '1' );
FILE_NAME ('Web Model 47023_48393.step',
    '2017-03-01T18:54:01',
    ( '' ),
    ( '' ),
    'SwSTEP 2.0',
    'SolidWorks 2016',
    '' );
FILE_SCHEMA (( 'CONFIG_CONTROL_DESIGN' ));
ENDSEC;

DATA;
#1 = DIRECTION ( 'NONE',  ( -0.0000000000000000000, -1.000000000000000000, -0.0000000000000000000 ) ) ;
#2 = CARTESIAN_POINT ( 'NONE',  ( 0.0000000000000000000, 0.0000000000000000000, 0.0000000000000000000 ) ) ;
#3 = COORDINATED_UNIVERSAL_TIME_OFFSET ( 5, 0, .BEHIND. ) ;
#4 = LINE ( 'NONE', #141, #65 ) ;
#5 = PLANE ( 'NONE',  #28 ) ;
#6 = LOCAL_TIME ( 13, 54, 1.000000000000000000, #184 ) ;
#7 = ORIENTED_EDGE ( 'NONE', *, *, #199, .F. ) ;
#8 = LINE ( 'NONE', #2, #230 ) ;
#9 = APPROVAL_PERSON_ORGANIZATION ( #168, #109, #182 ) ;
#10 =( LENGTH_UNIT ( ) NAMED_UNIT ( * ) SI_UNIT ( .MILLI., .METRE. ) );
#11 = ORIENTED_EDGE ( 'NONE', *, *, #140, .F. ) ;
#12 = VECTOR ( 'NONE', #132, 1000.000000000000000 ) ;
#13 = LINE ( 'NONE', #135, #50 ) ;
#14 = EDGE_CURVE ( 'NONE', #60, #183, #91, .T. ) ;
#15 = PLANE ( 'NONE',  #194 ) ;
#16 = APPLICATION_CONTEXT ( 'configuration controlled 3d designs of mechanical parts and assemblies' ) ;
#17 = DIRECTION ( 'NONE',  ( 0.0000000000000000000, 1.000000000000000000, 0.0000000000000000000 ) ) ;
#18 = AXIS2_PLACEMENT_3D ( 'NONE', #66, #74, #138 ) ;
#19 = DATE_AND_TIME ( #33, #87 ) ;
#20 = CC_DESIGN_DATE_AND_TIME_ASSIGNMENT ( #217, #193, ( #131 ) ) ;
#21 = PRODUCT ( 'Web Model 47023_48393', 'Web Model 47023_48393', '', ( #205 ) ) ;
#22 = UNCERTAINTY_MEASURE_WITH_UNIT (LENGTH_MEASURE( 1.000000000000000100E-005 ), #10, 'distance_accuracy_value', 'NONE');
#23 =( GEOMETRIC_REPRESENTATION_CONTEXT ( 3 ) GLOBAL_UNCERTAINTY_ASSIGNED_CONTEXT ( ( #22 ) ) GLOBAL_UNIT_ASSIGNED_CONTEXT ( ( #10, #69, #160 ) ) REPRESENTATION_CONTEXT ( 'NONE', 'WORKASPACE' ) );
#24 = DIRECTION ( 'NONE',  ( 0.0000000000000000000, -1.000000000000000000, 0.0000000000000000000 ) ) ;
#25 = CARTESIAN_POINT ( 'NONE',  ( 0.0000000000000000000, 25.00000000000000000, 3.000000000000000000 ) ) ;
#26 = APPROVAL_STATUS ( 'not_yet_approved' ) ;
#27 = AXIS2_PLACEMENT_3D ( 'NONE', #191, #17, #192 ) ;
#28 = AXIS2_PLACEMENT_3D ( 'NONE', #30, #83, #95 ) ;
#29 = LOCAL_TIME ( 13, 54, 1.000000000000000000, #3 ) ;
#30 = CARTESIAN_POINT ( 'NONE',  ( 0.0000000000000000000, 25.00000000000000000, 3.000000000000000000 ) ) ;
#31 = ORIENTED_EDGE ( 'NONE', *, *, #150, .T. ) ;
#32 = APPROVAL_STATUS ( 'not_yet_approved' ) ;
#33 = CALENDAR_DATE ( 2017, 1, 3 ) ;
#34 = EDGE_LOOP ( 'NONE', ( #39, #63, #7, #11 ) ) ;
#35 = CALENDAR_DATE ( 2017, 1, 3 ) ;
#36 = CARTESIAN_POINT ( 'NONE',  ( 0.0000000000000000000, 25.00000000000000000, 0.0000000000000000000 ) ) ;
#37 = ADVANCED_BREP_SHAPE_REPRESENTATION ( 'Web Model 47023_48393', ( #112, #51 ), #23 ) ;
#38 = ORIENTED_EDGE ( 'NONE', *, *, #140, .T. ) ;
#39 = ORIENTED_EDGE ( 'NONE', *, *, #130, .F. ) ;
#40 = PERSON_AND_ORGANIZATION ( #55, #213 ) ;
#41 = EDGE_CURVE ( 'NONE', #60, #224, #152, .T. ) ;
#42 = ORIENTED_EDGE ( 'NONE', *, *, #73, .T. ) ;
#43 = LINE ( 'NONE', #61, #218 ) ;
#44 = APPLICATION_PROTOCOL_DEFINITION ( 'international standard', 'config_control_design', 1994, #16 ) ;
#45 = ORIENTED_EDGE ( 'NONE', *, *, #130, .T. ) ;
#46 = CARTESIAN_POINT ( 'NONE',  ( 38.00000000000000000, 0.0000000000000000000, 0.0000000000000000000 ) ) ;
#47 = LINE ( 'NONE', #144, #174 ) ;
#48 = PERSON_AND_ORGANIZATION_ROLE ( 'creator' ) ;
#49 = DIRECTION ( 'NONE',  ( -0.0000000000000000000, -0.0000000000000000000, -1.000000000000000000 ) ) ;
#50 = VECTOR ( 'NONE', #209, 1000.000000000000000 ) ;
#51 = AXIS2_PLACEMENT_3D ( 'NONE', #186, #220, #149 ) ;
#52 = APPLICATION_PROTOCOL_DEFINITION ( 'international standard', 'config_control_design', 1994, #80 ) ;
#53 = DIRECTION ( 'NONE',  ( -1.000000000000000000, 0.0000000000000000000, 0.0000000000000000000 ) ) ;
#54 = AXIS2_PLACEMENT_3D ( 'NONE', #25, #24, #222 ) ;
#55 = PERSON ( 'UNSPECIFIED', 'UNSPECIFIED', 'UNSPECIFIED', ('UNSPECIFIED'), ('UNSPECIFIED'), ('UNSPECIFIED') ) ;
#56 = PERSON_AND_ORGANIZATION_ROLE ( 'creator' ) ;
#57 = PERSON_AND_ORGANIZATION ( #55, #213 ) ;
#58 = PERSON_AND_ORGANIZATION ( #55, #213 ) ;
#59 = CARTESIAN_POINT ( 'NONE',  ( 38.00000000000000000, 0.0000000000000000000, 3.000000000000000000 ) ) ;
#60 = VERTEX_POINT ( 'NONE', #125 ) ;
#61 = CARTESIAN_POINT ( 'NONE',  ( 0.0000000000000000000, 0.0000000000000000000, 3.000000000000000000 ) ) ;
#62 = CARTESIAN_POINT ( 'NONE',  ( 38.00000000000000000, 25.00000000000000000, 3.000000000000000000 ) ) ;
#63 = ORIENTED_EDGE ( 'NONE', *, *, #221, .F. ) ;
#64 = FACE_OUTER_BOUND ( 'NONE', #176, .T. ) ;
#65 = VECTOR ( 'NONE', #165, 1000.000000000000000 ) ;
#66 = CARTESIAN_POINT ( 'NONE',  ( 0.0000000000000000000, 0.0000000000000000000, 3.000000000000000000 ) ) ;
#67 = DATE_AND_TIME ( #164, #70 ) ;
#68 = EDGE_LOOP ( 'NONE', ( #45, #237, #158, #127 ) ) ;
#69 =( NAMED_UNIT ( * ) PLANE_ANGLE_UNIT ( ) SI_UNIT ( $, .RADIAN. ) );
#70 = LOCAL_TIME ( 13, 54, 1.000000000000000000, #225 ) ;
#71 = CC_DESIGN_PERSON_AND_ORGANIZATION_ASSIGNMENT ( #102, #180, ( #21 ) ) ;
#72 = PLANE ( 'NONE',  #18 ) ;
#73 = EDGE_CURVE ( 'NONE', #94, #60, #216, .T. ) ;
#74 = DIRECTION ( 'NONE',  ( 1.000000000000000000, 0.0000000000000000000, 0.0000000000000000000 ) ) ;
#75 = APPROVAL_PERSON_ORGANIZATION ( #57, #146, #97 ) ;
#76 = PERSON_AND_ORGANIZATION_ROLE ( 'classification_officer' ) ;
#77 = EDGE_LOOP ( 'NONE', ( #38, #104, #204, #219 ) ) ;
#78 = FACE_OUTER_BOUND ( 'NONE', #81, .T. ) ;
#79 = ADVANCED_FACE ( 'NONE', ( #107 ), #229, .F. ) ;
#80 = APPLICATION_CONTEXT ( 'configuration controlled 3d designs of mechanical parts and assemblies' ) ;
#81 = EDGE_LOOP ( 'NONE', ( #111, #200, #119, #207 ) ) ;
#82 = LINE ( 'NONE', #232, #172 ) ;
#83 = DIRECTION ( 'NONE',  ( 0.0000000000000000000, 0.0000000000000000000, -1.000000000000000000 ) ) ;
#84 = VECTOR ( 'NONE', #117, 1000.000000000000000 ) ;
#85 = ORIENTED_EDGE ( 'NONE', *, *, #221, .T. ) ;
#86 = CARTESIAN_POINT ( 'NONE',  ( 0.0000000000000000000, 0.0000000000000000000, 3.000000000000000000 ) ) ;
#87 = LOCAL_TIME ( 13, 54, 1.000000000000000000, #155 ) ;
#88 = SHAPE_DEFINITION_REPRESENTATION ( #139, #37 ) ;
#89 = PRODUCT_RELATED_PRODUCT_CATEGORY ( 'detail', '', ( #21 ) ) ;
#90 = APPROVAL_ROLE ( '' ) ;
#91 = LINE ( 'NONE', #62, #211 ) ;
#92 = VECTOR ( 'NONE', #1, 1000.000000000000000 ) ;
#93 = CARTESIAN_POINT ( 'NONE',  ( 38.00000000000000000, 0.0000000000000000000, 3.000000000000000000 ) ) ;
#94 = VERTEX_POINT ( 'NONE', #151 ) ;
#95 = DIRECTION ( 'NONE',  ( -1.000000000000000000, 0.0000000000000000000, -0.0000000000000000000 ) ) ;
#96 = EDGE_CURVE ( 'NONE', #106, #94, #43, .T. ) ;
#97 = APPROVAL_ROLE ( '' ) ;
#98 = EDGE_CURVE ( 'NONE', #94, #143, #82, .T. ) ;
#99 = PRODUCT_DEFINITION_FORMATION_WITH_SPECIFIED_SOURCE ( 'ANY', '', #21, .NOT_KNOWN. ) ;
#100 = SECURITY_CLASSIFICATION_LEVEL ( 'unclassified' ) ;
#101 = CC_DESIGN_PERSON_AND_ORGANIZATION_ASSIGNMENT ( #198, #48, ( #131 ) ) ;
#102 = PERSON_AND_ORGANIZATION ( #55, #213 ) ;
#103 = DATE_TIME_ROLE ( 'classification_date' ) ;
#104 = ORIENTED_EDGE ( 'NONE', *, *, #98, .F. ) ;
#105 = PERSON_AND_ORGANIZATION ( #55, #213 ) ;
#106 = VERTEX_POINT ( 'NONE', #86 ) ;
#107 = FACE_OUTER_BOUND ( 'NONE', #181, .T. ) ;
#108 = EDGE_CURVE ( 'NONE', #106, #203, #47, .T. ) ;
#109 = APPROVAL ( #32, 'UNSPECIFIED' ) ;
#110 = ADVANCED_FACE ( 'NONE', ( #129 ), #15, .T. ) ;
#111 = ORIENTED_EDGE ( 'NONE', *, *, #199, .T. ) ;
#112 = MANIFOLD_SOLID_BREP ( 'Extrude1', #116 ) ;
#113 = DIRECTION ( 'NONE',  ( 1.000000000000000000, 0.0000000000000000000, 0.0000000000000000000 ) ) ;
#114 = PERSON_AND_ORGANIZATION_ROLE ( 'design_supplier' ) ;
#115 = ADVANCED_FACE ( 'NONE', ( #78 ), #197, .F. ) ;
#116 = CLOSED_SHELL ( 'NONE', ( #201, #223, #115, #79, #175, #110 ) ) ;
#117 = DIRECTION ( 'NONE',  ( -0.0000000000000000000, -1.000000000000000000, -0.0000000000000000000 ) ) ;
#118 = ORIENTED_EDGE ( 'NONE', *, *, #41, .F. ) ;
#119 = ORIENTED_EDGE ( 'NONE', *, *, #73, .F. ) ;
#120 = CARTESIAN_POINT ( 'NONE',  ( 0.0000000000000000000, 25.00000000000000000, 0.0000000000000000000 ) ) ;
#121 = APPROVAL_PERSON_ORGANIZATION ( #58, #215, #90 ) ;
#122 = CC_DESIGN_SECURITY_CLASSIFICATION ( #163, ( #99 ) ) ;
#123 = CC_DESIGN_PERSON_AND_ORGANIZATION_ASSIGNMENT ( #105, #114, ( #99 ) ) ;
#124 = APPROVAL_DATE_TIME ( #145, #215 ) ;
#125 = CARTESIAN_POINT ( 'NONE',  ( 38.00000000000000000, 25.00000000000000000, 3.000000000000000000 ) ) ;
#126 = DIRECTION ( 'NONE',  ( 0.0000000000000000000, 1.000000000000000000, 0.0000000000000000000 ) ) ;
#127 = ORIENTED_EDGE ( 'NONE', *, *, #208, .T. ) ;
#128 = DESIGN_CONTEXT ( 'detailed design', #80, 'design' ) ;
#129 = FACE_OUTER_BOUND ( 'NONE', #34, .T. ) ;
#130 = EDGE_CURVE ( 'NONE', #134, #203, #188, .T. ) ;
#131 = PRODUCT_DEFINITION ( 'UNKNOWN', '', #99, #128 ) ;
#132 = DIRECTION ( 'NONE',  ( 0.0000000000000000000, 1.000000000000000000, 0.0000000000000000000 ) ) ;
#133 = CARTESIAN_POINT ( 'NONE',  ( 0.0000000000000000000, 25.00000000000000000, 3.000000000000000000 ) ) ;
#134 = VERTEX_POINT ( 'NONE', #120 ) ;
#135 = CARTESIAN_POINT ( 'NONE',  ( 0.0000000000000000000, 25.00000000000000000, 0.0000000000000000000 ) ) ;
#136 = LINE ( 'NONE', #46, #12 ) ;
#137 = VECTOR ( 'NONE', #178, 1000.000000000000000 ) ;
#138 = DIRECTION ( 'NONE',  ( 0.0000000000000000000, 0.0000000000000000000, -1.000000000000000000 ) ) ;
#139 = PRODUCT_DEFINITION_SHAPE ( 'NONE', 'NONE',  #131 ) ;
#140 = EDGE_CURVE ( 'NONE', #203, #143, #8, .T. ) ;
#141 = CARTESIAN_POINT ( 'NONE',  ( 0.0000000000000000000, 25.00000000000000000, 3.000000000000000000 ) ) ;
#142 = CALENDAR_DATE ( 2017, 1, 3 ) ;
#143 = VERTEX_POINT ( 'NONE', #210 ) ;
#144 = CARTESIAN_POINT ( 'NONE',  ( 0.0000000000000000000, 0.0000000000000000000, 3.000000000000000000 ) ) ;
#145 = DATE_AND_TIME ( #142, #228 ) ;
#146 = APPROVAL ( #147, 'UNSPECIFIED' ) ;
#147 = APPROVAL_STATUS ( 'not_yet_approved' ) ;
#148 = FACE_OUTER_BOUND ( 'NONE', #77, .T. ) ;
#149 = DIRECTION ( 'NONE',  ( 1.000000000000000000, 0.0000000000000000000, 0.0000000000000000000 ) ) ;
#150 = EDGE_CURVE ( 'NONE', #224, #106, #173, .T. ) ;
#151 = CARTESIAN_POINT ( 'NONE',  ( 38.00000000000000000, 0.0000000000000000000, 3.000000000000000000 ) ) ;
#152 = LINE ( 'NONE', #133, #137 ) ;
#153 = AXIS2_PLACEMENT_3D ( 'NONE', #59, #53, #166 ) ;
#154 = CC_DESIGN_PERSON_AND_ORGANIZATION_ASSIGNMENT ( #236, #56, ( #99 ) ) ;
#155 = COORDINATED_UNIVERSAL_TIME_OFFSET ( 5, 0, .BEHIND. ) ;
#156 = ORIENTED_EDGE ( 'NONE', *, *, #208, .F. ) ;
#157 = DIRECTION ( 'NONE',  ( 1.000000000000000000, 0.0000000000000000000, 0.0000000000000000000 ) ) ;
#158 = ORIENTED_EDGE ( 'NONE', *, *, #150, .F. ) ;
#159 = DIRECTION ( 'NONE',  ( -0.0000000000000000000, -0.0000000000000000000, -1.000000000000000000 ) ) ;
#160 =( NAMED_UNIT ( * ) SI_UNIT ( $, .STERADIAN. ) SOLID_ANGLE_UNIT ( ) );
#161 = CARTESIAN_POINT ( 'NONE',  ( 0.0000000000000000000, 0.0000000000000000000, 3.000000000000000000 ) ) ;
#162 = COORDINATED_UNIVERSAL_TIME_OFFSET ( 5, 0, .BEHIND. ) ;
#163 = SECURITY_CLASSIFICATION ( '', '', #100 ) ;
#164 = CALENDAR_DATE ( 2017, 1, 3 ) ;
#165 = DIRECTION ( 'NONE',  ( -0.0000000000000000000, -0.0000000000000000000, -1.000000000000000000 ) ) ;
#166 = DIRECTION ( 'NONE',  ( 0.0000000000000000000, 0.0000000000000000000, 1.000000000000000000 ) ) ;
#167 = CARTESIAN_POINT ( 'NONE',  ( 38.00000000000000000, 25.00000000000000000, 0.0000000000000000000 ) ) ;
#168 = PERSON_AND_ORGANIZATION ( #55, #213 ) ;
#169 = ORIENTED_EDGE ( 'NONE', *, *, #41, .T. ) ;
#170 = CALENDAR_DATE ( 2017, 1, 3 ) ;
#171 = CC_DESIGN_PERSON_AND_ORGANIZATION_ASSIGNMENT ( #40, #76, ( #163 ) ) ;
#172 = VECTOR ( 'NONE', #49, 1000.000000000000000 ) ;
#173 = LINE ( 'NONE', #161, #92 ) ;
#174 = VECTOR ( 'NONE', #159, 1000.000000000000000 ) ;
#175 = ADVANCED_FACE ( 'NONE', ( #64 ), #5, .F. ) ;
#176 = EDGE_LOOP ( 'NONE', ( #31, #212, #42, #169 ) ) ;
#177 = CARTESIAN_POINT ( 'NONE',  ( 0.0000000000000000000, 0.0000000000000000000, 0.0000000000000000000 ) ) ;
#178 = DIRECTION ( 'NONE',  ( -1.000000000000000000, -0.0000000000000000000, -0.0000000000000000000 ) ) ;
#179 = PLANE ( 'NONE',  #27 ) ;
#180 = PERSON_AND_ORGANIZATION_ROLE ( 'design_owner' ) ;
#181 = EDGE_LOOP ( 'NONE', ( #85, #156, #118, #187 ) ) ;
#182 = APPROVAL_ROLE ( '' ) ;
#183 = VERTEX_POINT ( 'NONE', #167 ) ;
#184 = COORDINATED_UNIVERSAL_TIME_OFFSET ( 5, 0, .BEHIND. ) ;
#185 = DIRECTION ( 'NONE',  ( -1.000000000000000000, 0.0000000000000000000, -0.0000000000000000000 ) ) ;
#186 = CARTESIAN_POINT ( 'NONE',  ( 0.0000000000000000000, 0.0000000000000000000, 0.0000000000000000000 ) ) ;
#187 = ORIENTED_EDGE ( 'NONE', *, *, #14, .T. ) ;
#188 = LINE ( 'NONE', #214, #84 ) ;
#189 = VECTOR ( 'NONE', #126, 1000.000000000000000 ) ;
#190 = CC_DESIGN_APPROVAL ( #146, ( #99 ) ) ;
#191 = CARTESIAN_POINT ( 'NONE',  ( 0.0000000000000000000, 0.0000000000000000000, 3.000000000000000000 ) ) ;
#192 = DIRECTION ( 'NONE',  ( 0.0000000000000000000, -0.0000000000000000000, 1.000000000000000000 ) ) ;
#193 = DATE_TIME_ROLE ( 'creation_date' ) ;
#194 = AXIS2_PLACEMENT_3D ( 'NONE', #36, #202, #185 ) ;
#195 = APPROVAL_DATE_TIME ( #67, #109 ) ;
#196 = CC_DESIGN_DATE_AND_TIME_ASSIGNMENT ( #226, #103, ( #163 ) ) ;
#197 = PLANE ( 'NONE',  #153 ) ;
#198 = PERSON_AND_ORGANIZATION ( #55, #213 ) ;
#199 = EDGE_CURVE ( 'NONE', #143, #183, #136, .T. ) ;
#200 = ORIENTED_EDGE ( 'NONE', *, *, #14, .F. ) ;
#201 = ADVANCED_FACE ( 'NONE', ( #234 ), #72, .F. ) ;
#202 = DIRECTION ( 'NONE',  ( 0.0000000000000000000, 0.0000000000000000000, -1.000000000000000000 ) ) ;
#203 = VERTEX_POINT ( 'NONE', #177 ) ;
#204 = ORIENTED_EDGE ( 'NONE', *, *, #96, .F. ) ;
#205 = MECHANICAL_CONTEXT ( 'NONE', #16, 'mechanical' ) ;
#206 = APPROVAL_DATE_TIME ( #19, #146 ) ;
#207 = ORIENTED_EDGE ( 'NONE', *, *, #98, .T. ) ;
#208 = EDGE_CURVE ( 'NONE', #224, #134, #4, .T. ) ;
#209 = DIRECTION ( 'NONE',  ( -1.000000000000000000, -0.0000000000000000000, -0.0000000000000000000 ) ) ;
#210 = CARTESIAN_POINT ( 'NONE',  ( 38.00000000000000000, 0.0000000000000000000, 0.0000000000000000000 ) ) ;
#211 = VECTOR ( 'NONE', #231, 1000.000000000000000 ) ;
#212 = ORIENTED_EDGE ( 'NONE', *, *, #96, .T. ) ;
#213 = ORGANIZATION ( 'UNSPECIFIED', 'UNSPECIFIED', '' ) ;
#214 = CARTESIAN_POINT ( 'NONE',  ( 0.0000000000000000000, 0.0000000000000000000, 0.0000000000000000000 ) ) ;
#215 = APPROVAL ( #26, 'UNSPECIFIED' ) ;
#216 = LINE ( 'NONE', #93, #189 ) ;
#217 = DATE_AND_TIME ( #35, #6 ) ;
#218 = VECTOR ( 'NONE', #113, 1000.000000000000000 ) ;
#219 = ORIENTED_EDGE ( 'NONE', *, *, #108, .T. ) ;
#220 = DIRECTION ( 'NONE',  ( 0.0000000000000000000, 0.0000000000000000000, 1.000000000000000000 ) ) ;
#221 = EDGE_CURVE ( 'NONE', #183, #134, #13, .T. ) ;
#222 = DIRECTION ( 'NONE',  ( 0.0000000000000000000, -0.0000000000000000000, -1.000000000000000000 ) ) ;
#223 = ADVANCED_FACE ( 'NONE', ( #148 ), #179, .F. ) ;
#224 = VERTEX_POINT ( 'NONE', #233 ) ;
#225 = COORDINATED_UNIVERSAL_TIME_OFFSET ( 5, 0, .BEHIND. ) ;
#226 = DATE_AND_TIME ( #170, #29 ) ;
#227 = CC_DESIGN_APPROVAL ( #215, ( #163 ) ) ;
#228 = LOCAL_TIME ( 13, 54, 1.000000000000000000, #162 ) ;
#229 = PLANE ( 'NONE',  #54 ) ;
#230 = VECTOR ( 'NONE', #157, 1000.000000000000000 ) ;
#231 = DIRECTION ( 'NONE',  ( -0.0000000000000000000, -0.0000000000000000000, -1.000000000000000000 ) ) ;
#232 = CARTESIAN_POINT ( 'NONE',  ( 38.00000000000000000, 0.0000000000000000000, 3.000000000000000000 ) ) ;
#233 = CARTESIAN_POINT ( 'NONE',  ( 0.0000000000000000000, 25.00000000000000000, 3.000000000000000000 ) ) ;
#234 = FACE_OUTER_BOUND ( 'NONE', #68, .T. ) ;
#235 = CC_DESIGN_APPROVAL ( #109, ( #131 ) ) ;
#236 = PERSON_AND_ORGANIZATION ( #55, #213 ) ;
#237 = ORIENTED_EDGE ( 'NONE', *, *, #108, .F. ) ;
ENDSEC;
END-ISO-10303-21;
