ISO-10303-21;
HEADER;
FILE_DESCRIPTION (( 'STEP AP203' ),
    '1' );
FILE_NAME ('20178-E0W.STEP',
    '2018-06-01T18:09:12',
    ( 'admin' ),
    ( '' ),
    'SwSTEP 2.0',
    'SolidWorks 2016',
    '' );
FILE_SCHEMA (( 'CONFIG_CONTROL_DESIGN' ));
ENDSEC;

DATA;
#1 = CARTESIAN_POINT ( 'NONE',  ( 0.0000000000000000000, -0.4921429307908253800, -0.07979521629263597300 ) ) ;
#2 = DIRECTION ( 'NONE',  ( 1.000000000000000000, 0.0000000000000000000, 0.0000000000000000000 ) ) ;
#3 = AXIS2_PLACEMENT_3D ( 'NONE', #45, #51, #107 ) ;
#4 = DIRECTION ( 'NONE',  ( 1.000000000000000000, 0.0000000000000000000, 0.0000000000000000000 ) ) ;
#5 = DIRECTION ( 'NONE',  ( 0.0000000000000000000, 1.836909530733637100E-016, -1.000000000000000000 ) ) ;
#6 = DIRECTION ( 'NONE',  ( -0.0000000000000000000, -1.836909530733566100E-016, 1.000000000000000000 ) ) ;
#7 = APPLICATION_PROTOCOL_DEFINITION ( 'international standard', 'config_control_design', 1994, #38 ) ;
#8 = CC_DESIGN_PERSON_AND_ORGANIZATION_ASSIGNMENT ( #92, #181, ( #99 ) ) ;
#9 = ORIENTED_EDGE ( 'NONE', *, *, #54, .F. ) ;
#10 = CARTESIAN_POINT ( 'NONE',  ( 0.0000000000000000000, -4.423145898146438300E-018, 0.08765894013430541900 ) ) ;
#11 = CARTESIAN_POINT ( 'NONE',  ( -6.055048479497744600E-017, -0.4944322300693960200, 0.09322671006490880500 ) ) ;
#12 = DIRECTION ( 'NONE',  ( -0.0000000000000000000, -1.836909530733566100E-016, 1.000000000000000000 ) ) ;
#13 = AXIS2_PLACEMENT_3D ( 'NONE', #10, #163, #298 ) ;
#14 = CIRCLE ( 'NONE', #82, 4.137716535433070500 ) ;
#15 = ORIENTED_EDGE ( 'NONE', *, *, #231, .T. ) ;
#16 = FACE_OUTER_BOUND ( 'NONE', #50, .T. ) ;
#17 = CARTESIAN_POINT ( 'NONE',  ( 0.0000000000000000000, -4.423145898146438300E-018, 0.08765894013430541900 ) ) ;
#18 = APPROVAL_PERSON_ORGANIZATION ( #117, #87, #158 ) ;
#19 = ORIENTED_EDGE ( 'NONE', *, *, #302, .T. ) ;
#20 = DIRECTION ( 'NONE',  ( 0.0000000000000000000, -1.000000000000000000, -1.271727305516534400E-016 ) ) ;
#21 = AXIS2_PLACEMENT_3D ( 'NONE', #188, #2, #312 ) ;
#22 = CARTESIAN_POINT ( 'NONE',  ( 0.0000000000000000000, -5.445894863192140100E-018, 0.09322671006490873500 ) ) ;
#23 = ADVANCED_FACE ( 'NONE', ( #315 ), #70, .T. ) ;
#24 = DIRECTION ( 'NONE',  ( 0.0000000000000000000, 1.000000000000000000, 1.707404996040164800E-016 ) ) ;
#25 = PERSON_AND_ORGANIZATION ( #196, #205 ) ;
#26 = LOCAL_TIME ( 14, 9, 12.00000000000000000, #129 ) ;
#27 = CARTESIAN_POINT ( 'NONE',  ( 0.0000000000000000000, -0.4999999999999999400, -0.07146683298193244600 ) ) ;
#28 = ORIENTED_EDGE ( 'NONE', *, *, #308, .F. ) ;
#29 = DIRECTION ( 'NONE',  ( 0.0000000000000000000, 1.836909530733566100E-016, -1.000000000000000000 ) ) ;
#30 = LOCAL_TIME ( 14, 9, 12.00000000000000000, #267 ) ;
#31 = AXIS2_PLACEMENT_3D ( 'NONE', #57, #133, #320 ) ;
#32 = CARTESIAN_POINT ( 'NONE',  ( 0.0000000000000000000, -0.4999999999999999400, 0.08765894013430533500 ) ) ;
#33 = ADVANCED_BREP_SHAPE_REPRESENTATION ( '20178-E0W', ( #241, #232 ), #214 ) ;
#34 = CARTESIAN_POINT ( 'NONE',  ( 0.0000000000000000000, 1.575784320720410200E-015, -0.07979521629263630600 ) ) ;
#35 = DIMENSIONAL_EXPONENTS ( 1.000000000000000000, 0.0000000000000000000, 0.0000000000000000000, 0.0000000000000000000, 0.0000000000000000000, 0.0000000000000000000, 0.0000000000000000000 ) ;
#36 = ORIENTED_EDGE ( 'NONE', *, *, #195, .T. ) ;
#37 = AXIS2_PLACEMENT_3D ( 'NONE', #22, #6, #159 ) ;
#38 = APPLICATION_CONTEXT ( 'configuration controlled 3d designs of mechanical parts and assemblies' ) ;
#39 = APPROVAL ( #106, 'UNSPECIFIED' ) ;
#40 = AXIS2_PLACEMENT_3D ( 'NONE', #325, #142, #309 ) ;
#41 = FACE_OUTER_BOUND ( 'NONE', #66, .T. ) ;
#42 = ADVANCED_FACE ( 'NONE', ( #111 ), #79, .T. ) ;
#43 = DIRECTION ( 'NONE',  ( -0.0000000000000000000, -1.836909530733566100E-016, 1.000000000000000000 ) ) ;
#44 = CARTESIAN_POINT ( 'NONE',  ( 6.123233995736764800E-017, 0.4999999999999999400, -0.07146683298193225200 ) ) ;
#45 = CARTESIAN_POINT ( 'NONE',  ( 0.0000000000000000000, 0.0000000000000000000, 4.201296195536746900 ) ) ;
#46 = DIRECTION ( 'NONE',  ( 1.000000000000000000, 0.0000000000000000000, 0.0000000000000000000 ) ) ;
#47 = CARTESIAN_POINT ( 'NONE',  ( 0.0000000000000000000, 0.0000000000000000000, 4.201296195536746900 ) ) ;
#48 = DIRECTION ( 'NONE',  ( -0.0000000000000000000, -1.836909530733637100E-016, 1.000000000000000000 ) ) ;
#49 = DATE_AND_TIME ( #122, #176 ) ;
#50 = EDGE_LOOP ( 'NONE', ( #136, #80, #225 ) ) ;
#51 = DIRECTION ( 'NONE',  ( -1.000000000000000000, 0.0000000000000000000, 0.0000000000000000000 ) ) ;
#52 = FACE_OUTER_BOUND ( 'NONE', #279, .T. ) ;
#53 = PRODUCT_DEFINITION_SHAPE ( 'NONE', 'NONE',  #236 ) ;
#54 = EDGE_CURVE ( 'NONE', #257, #271, #112, .T. ) ;
#55 = CARTESIAN_POINT ( 'NONE',  ( 0.0000000000000000000, -5.445894863192140100E-018, 0.09322671006490873500 ) ) ;
#56 = DIRECTION ( 'NONE',  ( 8.403835247800364300E-017, 0.6862252245832380900, 0.7273891263592577900 ) ) ;
#57 = CARTESIAN_POINT ( 'NONE',  ( 0.0000000000000000000, 0.0000000000000000000, 8.498658400261156500 ) ) ;
#58 = EDGE_CURVE ( 'NONE', #257, #233, #14, .T. ) ;
#59 = PERSON_AND_ORGANIZATION_ROLE ( 'classification_officer' ) ;
#60 = CARTESIAN_POINT ( 'NONE',  ( 6.123233995736764800E-017, -0.4999999999999999400, 0.08765894013430533500 ) ) ;
#61 = ORIENTED_EDGE ( 'NONE', *, *, #109, .F. ) ;
#62 = VERTEX_POINT ( 'NONE', #32 ) ;
#63 = CARTESIAN_POINT ( 'NONE',  ( 0.0000000000000000000, 2.480681902410998800E-017, -0.07146683298193236300 ) ) ;
#64 = DATE_AND_TIME ( #173, #26 ) ;
#65 = ORIENTED_EDGE ( 'NONE', *, *, #189, .F. ) ;
#66 = EDGE_LOOP ( 'NONE', ( #162, #237, #288, #226 ) ) ;
#67 = CARTESIAN_POINT ( 'NONE',  ( 0.0000000000000000000, -0.4999999999999999400, 0.06357966010367657700 ) ) ;
#68 = ORIENTED_EDGE ( 'NONE', *, *, #187, .F. ) ;
#69 = DIRECTION ( 'NONE',  ( -0.0000000000000000000, -1.836909530733566100E-016, 1.000000000000000000 ) ) ;
#70 = CYLINDRICAL_SURFACE ( 'NONE', #72, 0.4999999999999999400 ) ;
#71 = DIRECTION ( 'NONE',  ( 1.000000000000000000, -1.224646799147353200E-016, -2.249565377136128300E-032 ) ) ;
#72 = AXIS2_PLACEMENT_3D ( 'NONE', #264, #211, #316 ) ;
#73 = EDGE_LOOP ( 'NONE', ( #192, #19, #306, #256 ) ) ;
#74 = VECTOR ( 'NONE', #141, 39.37007874015748100 ) ;
#75 = DIRECTION ( 'NONE',  ( 8.659560562354466900E-017, -0.7071067811865093800, -0.7071067811865854300 ) ) ;
#76 = ORIENTED_EDGE ( 'NONE', *, *, #189, .T. ) ;
#77 = CIRCLE ( 'NONE', #31, 8.592559055118110600 ) ;
#78 = DIRECTION ( 'NONE',  ( 0.0000000000000000000, 1.836909530733637100E-016, -1.000000000000000000 ) ) ;
#79 = SPHERICAL_SURFACE ( 'NONE', #21, 8.592559055118110600 ) ;
#80 = ORIENTED_EDGE ( 'NONE', *, *, #109, .T. ) ;
#81 = ORIENTED_EDGE ( 'NONE', *, *, #54, .T. ) ;
#82 = AXIS2_PLACEMENT_3D ( 'NONE', #170, #326, #95 ) ;
#83 = AXIS2_PLACEMENT_3D ( 'NONE', #310, #143, #273 ) ;
#84 = PERSON_AND_ORGANIZATION_ROLE ( 'design_owner' ) ;
#85 = EDGE_CURVE ( 'NONE', #229, #62, #89, .T. ) ;
#86 = EDGE_CURVE ( 'NONE', #161, #193, #210, .T. ) ;
#87 = APPROVAL ( #119, 'UNSPECIFIED' ) ;
#88 = CARTESIAN_POINT ( 'NONE',  ( 0.0000000000000000000, 1.013423159485947100E-015, 0.06357966010367695200 ) ) ;
#89 = CIRCLE ( 'NONE', #13, 0.4999999999999999400 ) ;
#90 = SECURITY_CLASSIFICATION_LEVEL ( 'unclassified' ) ;
#91 = AXIS2_PLACEMENT_3D ( 'NONE', #120, #201, #140 ) ;
#92 = PERSON_AND_ORGANIZATION ( #196, #205 ) ;
#93 = CONICAL_SURFACE ( 'NONE', #132, 0.4999999999999999400, 0.7853981633973946600 ) ;
#94 = EDGE_CURVE ( 'NONE', #245, #212, #311, .T. ) ;
#95 = DIRECTION ( 'NONE',  ( 0.0000000000000000000, 0.0000000000000000000, -1.000000000000000000 ) ) ;
#96 = ADVANCED_FACE ( 'NONE', ( #52 ), #204, .F. ) ;
#97 = FACE_OUTER_BOUND ( 'NONE', #215, .T. ) ;
#98 = CARTESIAN_POINT ( 'NONE',  ( 0.0000000000000000000, 0.0000000000000000000, 8.498658400261156500 ) ) ;
#99 = PRODUCT_DEFINITION_FORMATION_WITH_SPECIFIED_SOURCE ( 'ANY', '', #238, .NOT_KNOWN. ) ;
#100 = AXIS2_PLACEMENT_3D ( 'NONE', #34, #78, #260 ) ;
#101 = DIRECTION ( 'NONE',  ( 0.0000000000000000000, -1.000000000000000000, -1.878145495644181100E-016 ) ) ;
#102 = DIRECTION ( 'NONE',  ( 0.0000000000000000000, -1.000000000000000000, -1.726631975225925000E-016 ) ) ;
#103 = EDGE_CURVE ( 'NONE', #271, #233, #327, .T. ) ;
#104 = ADVANCED_FACE ( 'NONE', ( #297 ), #293, .T. ) ;
#105 = CARTESIAN_POINT ( 'NONE',  ( 0.0000000000000000000, -4.423145898146438300E-018, 0.08765894013430541900 ) ) ;
#106 = APPROVAL_STATUS ( 'not_yet_approved' ) ;
#107 = DIRECTION ( 'NONE',  ( 0.0000000000000000000, 1.000000000000000000, 1.320461646065049600E-016 ) ) ;
#108 = DATE_AND_TIME ( #167, #30 ) ;
#109 = EDGE_CURVE ( 'NONE', #174, #193, #303, .T. ) ;
#110 = DIRECTION ( 'NONE',  ( 0.0000000000000000000, -1.000000000000000000, -1.734663742194279800E-016 ) ) ;
#111 = FACE_OUTER_BOUND ( 'NONE', #138, .T. ) ;
#112 = CIRCLE ( 'NONE', #40, 4.137716535433070500 ) ;
#113 = AXIS2_PLACEMENT_3D ( 'NONE', #150, #48, #101 ) ;
#114 = EDGE_CURVE ( 'NONE', #174, #161, #77, .T. ) ;
#115 = DIRECTION ( 'NONE',  ( 0.0000000000000000000, 1.000000000000000000, 1.320461646065049600E-016 ) ) ;
#116 = PERSON_AND_ORGANIZATION ( #196, #205 ) ;
#117 = PERSON_AND_ORGANIZATION ( #196, #205 ) ;
#118 = ADVANCED_FACE ( 'NONE', ( #291 ), #93, .T. ) ;
#119 = APPROVAL_STATUS ( 'not_yet_approved' ) ;
#120 = CARTESIAN_POINT ( 'NONE',  ( 0.0000000000000000000, 2.480681902410998800E-017, -0.07146683298193236300 ) ) ;
#121 = CARTESIAN_POINT ( 'NONE',  ( 0.0000000000000000000, -0.4999999999999999400, -0.07146683298193246000 ) ) ;
#122 = CALENDAR_DATE ( 2018, 1, 6 ) ;
#123 = CARTESIAN_POINT ( 'NONE',  ( 0.0000000000000000000, 2.480681902411008900E-017, -0.07146683298193234900 ) ) ;
#124 = CC_DESIGN_APPROVAL ( #152, ( #236 ) ) ;
#125 = DATE_TIME_ROLE ( 'creation_date' ) ;
#126 = ORIENTED_EDGE ( 'NONE', *, *, #187, .T. ) ;
#127 = CARTESIAN_POINT ( 'NONE',  ( 0.0000000000000000000, 1.052232865006996400E-015, -0.09390065485695366100 ) ) ;
#128 = ADVANCED_FACE ( 'NONE', ( #16 ), #300, .T. ) ;
#129 = COORDINATED_UNIVERSAL_TIME_OFFSET ( 5, 0, .BEHIND. ) ;
#130 = ADVANCED_FACE ( 'NONE', ( #274 ), #290, .F. ) ;
#131 = EDGE_CURVE ( 'NONE', #245, #62, #166, .T. ) ;
#132 = AXIS2_PLACEMENT_3D ( 'NONE', #105, #29, #24 ) ;
#133 = DIRECTION ( 'NONE',  ( -1.000000000000000000, 0.0000000000000000000, -0.0000000000000000000 ) ) ;
#134 = VECTOR ( 'NONE', #56, 39.37007874015748900 ) ;
#135 = APPLICATION_CONTEXT ( 'configuration controlled 3d designs of mechanical parts and assemblies' ) ;
#136 = ORIENTED_EDGE ( 'NONE', *, *, #114, .F. ) ;
#137 = APPLICATION_PROTOCOL_DEFINITION ( 'international standard', 'config_control_design', 1994, #135 ) ;
#138 = EDGE_LOOP ( 'NONE', ( #61, #221, #305 ) ) ;
#139 = CC_DESIGN_DATE_AND_TIME_ASSIGNMENT ( #301, #125, ( #236 ) ) ;
#140 = DIRECTION ( 'NONE',  ( 0.0000000000000000000, -1.000000000000000000, -1.878145495644181100E-016 ) ) ;
#141 = DIRECTION ( 'NONE',  ( 0.0000000000000000000, 0.7071067811865097100, -0.7071067811865853200 ) ) ;
#142 = DIRECTION ( 'NONE',  ( -1.000000000000000000, 1.224646799147353200E-016, 2.249565377136128300E-032 ) ) ;
#143 = DIRECTION ( 'NONE',  ( 0.0000000000000000000, 1.836909530733566100E-016, -1.000000000000000000 ) ) ;
#144 = APPROVAL_DATE_TIME ( #64, #39 ) ;
#145 = ORIENTED_EDGE ( 'NONE', *, *, #294, .F. ) ;
#146 = ORIENTED_EDGE ( 'NONE', *, *, #85, .T. ) ;
#147 = DIRECTION ( 'NONE',  ( -0.0000000000000000000, -1.836909530733637100E-016, 1.000000000000000000 ) ) ;
#148 = LINE ( 'NONE', #44, #134 ) ;
#149 = CARTESIAN_POINT ( 'NONE',  ( 0.0000000000000000000, 0.4944322300693966800, 0.09322671006490887400 ) ) ;
#150 = CARTESIAN_POINT ( 'NONE',  ( 0.0000000000000000000, 2.480681902411008900E-017, -0.07146683298193234900 ) ) ;
#151 = CC_DESIGN_PERSON_AND_ORGANIZATION_ASSIGNMENT ( #296, #59, ( #169 ) ) ;
#152 = APPROVAL ( #199, 'UNSPECIFIED' ) ;
#153 = CONICAL_SURFACE ( 'NONE', #113, 0.4999999999999999400, 0.7562867776345831800 ) ;
#154 = DIRECTION ( 'NONE',  ( 1.224646799147353200E-016, 1.000000000000000000, 0.0000000000000000000 ) ) ;
#155 = DIRECTION ( 'NONE',  ( -0.0000000000000000000, -1.836909530733637100E-016, 1.000000000000000000 ) ) ;
#156 = EDGE_LOOP ( 'NONE', ( #28, #234, #15, #65 ) ) ;
#157 = DATE_TIME_ROLE ( 'classification_date' ) ;
#158 = APPROVAL_ROLE ( '' ) ;
#159 = DIRECTION ( 'NONE',  ( 0.0000000000000000000, -1.000000000000000000, -1.726631975225925000E-016 ) ) ;
#160 = PERSON_AND_ORGANIZATION ( #196, #205 ) ;
#161 = VERTEX_POINT ( 'NONE', #1 ) ;
#162 = ORIENTED_EDGE ( 'NONE', *, *, #250, .F. ) ;
#163 = DIRECTION ( 'NONE',  ( -0.0000000000000000000, -1.836909530733566100E-016, 1.000000000000000000 ) ) ;
#164 = CARTESIAN_POINT ( 'NONE',  ( 0.0000000000000000000, 0.0000000000000000000, 0.0000000000000000000 ) ) ;
#165 = LINE ( 'NONE', #27, #197 ) ;
#166 = LINE ( 'NONE', #67, #255 ) ;
#167 = CALENDAR_DATE ( 2018, 1, 6 ) ;
#168 =( CONVERSION_BASED_UNIT ( 'INCH', #283 ) LENGTH_UNIT ( ) NAMED_UNIT ( #35 ) );
#169 = SECURITY_CLASSIFICATION ( '', '', #90 ) ;
#170 = CARTESIAN_POINT ( 'NONE',  ( 0.0000000000000000000, 0.0000000000000000000, 4.201296195536746900 ) ) ;
#171 = CARTESIAN_POINT ( 'NONE',  ( 6.027012649159835800E-017, 0.4921429307908284900, -0.07979521629263590400 ) ) ;
#172 = DIRECTION ( 'NONE',  ( 0.0000000000000000000, -1.000000000000000000, -1.878145495644181100E-016 ) ) ;
#173 = CALENDAR_DATE ( 2018, 1, 6 ) ;
#174 = VERTEX_POINT ( 'NONE', #127 ) ;
#175 = ORIENTED_EDGE ( 'NONE', *, *, #94, .T. ) ;
#176 = LOCAL_TIME ( 14, 9, 12.00000000000000000, #262 ) ;
#177 = EDGE_LOOP ( 'NONE', ( #248, #81, #184 ) ) ;
#178 = CC_DESIGN_DATE_AND_TIME_ASSIGNMENT ( #49, #157, ( #169 ) ) ;
#179 =( NAMED_UNIT ( * ) SI_UNIT ( $, .STERADIAN. ) SOLID_ANGLE_UNIT ( ) );
#180 = APPROVAL_ROLE ( '' ) ;
#181 = PERSON_AND_ORGANIZATION_ROLE ( 'creator' ) ;
#182 = APPROVAL_DATE_TIME ( #108, #87 ) ;
#183 = LINE ( 'NONE', #60, #198 ) ;
#184 = ORIENTED_EDGE ( 'NONE', *, *, #103, .T. ) ;
#185 = AXIS2_PLACEMENT_3D ( 'NONE', #98, #4, #20 ) ;
#186 = CIRCLE ( 'NONE', #100, 0.4921429307908303800 ) ;
#187 = EDGE_CURVE ( 'NONE', #212, #229, #227, .T. ) ;
#188 = CARTESIAN_POINT ( 'NONE',  ( 0.0000000000000000000, 0.0000000000000000000, 8.498658400261156500 ) ) ;
#189 = EDGE_CURVE ( 'NONE', #212, #245, #330, .T. ) ;
#190 = CLOSED_SHELL ( 'NONE', ( #313, #258, #284, #128, #130, #96, #42, #23, #118, #104 ) ) ;
#191 = PRODUCT_RELATED_PRODUCT_CATEGORY ( 'detail', '', ( #238 ) ) ;
#192 = ORIENTED_EDGE ( 'NONE', *, *, #103, .F. ) ;
#193 = VERTEX_POINT ( 'NONE', #171 ) ;
#194 = DESIGN_CONTEXT ( 'detailed design', #135, 'design' ) ;
#195 = EDGE_CURVE ( 'NONE', #233, #229, #277, .T. ) ;
#196 = PERSON ( 'UNSPECIFIED', 'UNSPECIFIED', 'UNSPECIFIED', ('UNSPECIFIED'), ('UNSPECIFIED'), ('UNSPECIFIED') ) ;
#197 = VECTOR ( 'NONE', #269, 39.37007874015748900 ) ;
#198 = VECTOR ( 'NONE', #75, 39.37007874015748900 ) ;
#199 = APPROVAL_STATUS ( 'not_yet_approved' ) ;
#200 = UNCERTAINTY_MEASURE_WITH_UNIT (LENGTH_MEASURE( 1.000000000000000100E-005 ), #168, 'distance_accuracy_value', 'NONE');
#201 = DIRECTION ( 'NONE',  ( -0.0000000000000000000, -1.836909530733637100E-016, 1.000000000000000000 ) ) ;
#202 = CARTESIAN_POINT ( 'NONE',  ( 6.123233995736764800E-017, 0.4999999999999999400, 0.08765894013430550200 ) ) ;
#203 = LOCAL_TIME ( 14, 9, 12.00000000000000000, #222 ) ;
#204 = SPHERICAL_SURFACE ( 'NONE', #295, 4.137716535433070500 ) ;
#205 = ORGANIZATION ( 'UNSPECIFIED', 'UNSPECIFIED', '' ) ;
#206 = CC_DESIGN_PERSON_AND_ORGANIZATION_ASSIGNMENT ( #160, #84, ( #238 ) ) ;
#207 = PERSON_AND_ORGANIZATION ( #196, #205 ) ;
#208 = DIRECTION ( 'NONE',  ( 0.0000000000000000000, 0.0000000000000000000, 1.000000000000000000 ) ) ;
#209 = CONICAL_SURFACE ( 'NONE', #83, 0.4999999999999999400, 0.7853981633973946600 ) ;
#210 = CIRCLE ( 'NONE', #254, 0.4921429307908303800 ) ;
#211 = DIRECTION ( 'NONE',  ( -0.0000000000000000000, -1.836909530733566100E-016, 1.000000000000000000 ) ) ;
#212 = VERTEX_POINT ( 'NONE', #317 ) ;
#213 = CARTESIAN_POINT ( 'NONE',  ( 0.0000000000000000000, 0.0000000000000000000, 8.498658400261156500 ) ) ;
#214 =( GEOMETRIC_REPRESENTATION_CONTEXT ( 3 ) GLOBAL_UNCERTAINTY_ASSIGNED_CONTEXT ( ( #200 ) ) GLOBAL_UNIT_ASSIGNED_CONTEXT ( ( #168, #280, #179 ) ) REPRESENTATION_CONTEXT ( 'NONE', 'WORKASPACE' ) );
#215 = EDGE_LOOP ( 'NONE', ( #175, #126, #230, #243 ) ) ;
#216 = AXIS2_PLACEMENT_3D ( 'NONE', #228, #272, #321 ) ;
#217 = MECHANICAL_CONTEXT ( 'NONE', #38, 'mechanical' ) ;
#218 = DIRECTION ( 'NONE',  ( -0.0000000000000000000, -1.836909530733566100E-016, 1.000000000000000000 ) ) ;
#219 = EDGE_CURVE ( 'NONE', #62, #229, #253, .T. ) ;
#220 = EDGE_LOOP ( 'NONE', ( #281, #145, #36, #146 ) ) ;
#221 = ORIENTED_EDGE ( 'NONE', *, *, #114, .T. ) ;
#222 = COORDINATED_UNIVERSAL_TIME_OFFSET ( 5, 0, .BEHIND. ) ;
#223 = AXIS2_PLACEMENT_3D ( 'NONE', #63, #147, #224 ) ;
#224 = DIRECTION ( 'NONE',  ( 0.0000000000000000000, -1.000000000000000000, -1.878145495644181100E-016 ) ) ;
#225 = ORIENTED_EDGE ( 'NONE', *, *, #250, .T. ) ;
#226 = ORIENTED_EDGE ( 'NONE', *, *, #231, .F. ) ;
#227 = LINE ( 'NONE', #244, #292 ) ;
#228 = CARTESIAN_POINT ( 'NONE',  ( 0.0000000000000000000, 0.0000000000000000000, 0.06357966010367667500 ) ) ;
#229 = VERTEX_POINT ( 'NONE', #202 ) ;
#230 = ORIENTED_EDGE ( 'NONE', *, *, #219, .F. ) ;
#231 = EDGE_CURVE ( 'NONE', #161, #245, #165, .T. ) ;
#232 = AXIS2_PLACEMENT_3D ( 'NONE', #164, #208, #46 ) ;
#233 = VERTEX_POINT ( 'NONE', #149 ) ;
#234 = ORIENTED_EDGE ( 'NONE', *, *, #86, .F. ) ;
#235 = CARTESIAN_POINT ( 'NONE',  ( 0.0000000000000000000, 0.4999999999999999400, 0.08765894013430550200 ) ) ;
#236 = PRODUCT_DEFINITION ( 'UNKNOWN', '', #99, #194 ) ;
#237 = ORIENTED_EDGE ( 'NONE', *, *, #308, .T. ) ;
#238 = PRODUCT ( '20178-E0W', '20178-E0W', '', ( #217 ) ) ;
#239 = CARTESIAN_POINT ( 'NONE',  ( 0.0000000000000000000, 1.575784320720410200E-015, -0.07979521629263630600 ) ) ;
#240 = AXIS2_PLACEMENT_3D ( 'NONE', #55, #43, #102 ) ;
#241 = MANIFOLD_SOLID_BREP ( '20178-001-1-solid1', #190 ) ;
#242 = DATE_AND_TIME ( #270, #203 ) ;
#243 = ORIENTED_EDGE ( 'NONE', *, *, #131, .F. ) ;
#244 = CARTESIAN_POINT ( 'NONE',  ( 6.123233995736764800E-017, 0.4999999999999999400, 0.06357966010367675800 ) ) ;
#245 = VERTEX_POINT ( 'NONE', #121 ) ;
#246 = CC_DESIGN_SECURITY_CLASSIFICATION ( #169, ( #99 ) ) ;
#247 = CC_DESIGN_APPROVAL ( #39, ( #169 ) ) ;
#248 = ORIENTED_EDGE ( 'NONE', *, *, #58, .F. ) ;
#249 = APPROVAL_DATE_TIME ( #242, #152 ) ;
#250 = EDGE_CURVE ( 'NONE', #193, #161, #186, .T. ) ;
#251 = AXIS2_PLACEMENT_3D ( 'NONE', #213, #71, #154 ) ;
#252 = ORIENTED_EDGE ( 'NONE', *, *, #294, .T. ) ;
#253 = CIRCLE ( 'NONE', #266, 0.4999999999999999400 ) ;
#254 = AXIS2_PLACEMENT_3D ( 'NONE', #239, #5, #110 ) ;
#255 = VECTOR ( 'NONE', #12, 39.37007874015748100 ) ;
#256 = ORIENTED_EDGE ( 'NONE', *, *, #195, .F. ) ;
#257 = VERTEX_POINT ( 'NONE', #88 ) ;
#258 = ADVANCED_FACE ( 'NONE', ( #282 ), #209, .T. ) ;
#259 = PERSON_AND_ORGANIZATION_ROLE ( 'design_supplier' ) ;
#260 = DIRECTION ( 'NONE',  ( 0.0000000000000000000, -1.000000000000000000, -1.734663742194279800E-016 ) ) ;
#261 = CC_DESIGN_PERSON_AND_ORGANIZATION_ASSIGNMENT ( #25, #259, ( #99 ) ) ;
#262 = COORDINATED_UNIVERSAL_TIME_OFFSET ( 5, 0, .BEHIND. ) ;
#263 = EDGE_LOOP ( 'NONE', ( #68, #76, #268, #276 ) ) ;
#264 = CARTESIAN_POINT ( 'NONE',  ( 0.0000000000000000000, 0.0000000000000000000, 0.06357966010367667500 ) ) ;
#265 = DIRECTION ( 'NONE',  ( 0.0000000000000000000, -1.000000000000000000, -1.707404996040164800E-016 ) ) ;
#266 = AXIS2_PLACEMENT_3D ( 'NONE', #17, #218, #265 ) ;
#267 = COORDINATED_UNIVERSAL_TIME_OFFSET ( 5, 0, .BEHIND. ) ;
#268 = ORIENTED_EDGE ( 'NONE', *, *, #131, .T. ) ;
#269 = DIRECTION ( 'NONE',  ( 0.0000000000000000000, -0.6862252245832383100, 0.7273891263592575700 ) ) ;
#270 = CALENDAR_DATE ( 2018, 1, 6 ) ;
#271 = VERTEX_POINT ( 'NONE', #11 ) ;
#272 = DIRECTION ( 'NONE',  ( -0.0000000000000000000, -1.836909530733566100E-016, 1.000000000000000000 ) ) ;
#273 = DIRECTION ( 'NONE',  ( 0.0000000000000000000, 1.000000000000000000, 1.707404996040164800E-016 ) ) ;
#274 = FACE_OUTER_BOUND ( 'NONE', #177, .T. ) ;
#275 = PERSON_AND_ORGANIZATION ( #196, #205 ) ;
#276 = ORIENTED_EDGE ( 'NONE', *, *, #85, .F. ) ;
#277 = LINE ( 'NONE', #235, #74 ) ;
#278 = CC_DESIGN_PERSON_AND_ORGANIZATION_ASSIGNMENT ( #275, #307, ( #236 ) ) ;
#279 = EDGE_LOOP ( 'NONE', ( #9, #329, #252 ) ) ;
#280 =( NAMED_UNIT ( * ) PLANE_ANGLE_UNIT ( ) SI_UNIT ( $, .RADIAN. ) );
#281 = ORIENTED_EDGE ( 'NONE', *, *, #302, .F. ) ;
#282 = FACE_OUTER_BOUND ( 'NONE', #73, .T. ) ;
#283 = LENGTH_MEASURE_WITH_UNIT ( LENGTH_MEASURE( 0.02539999999999999900 ), #323 );
#284 = ADVANCED_FACE ( 'NONE', ( #97 ), #314, .T. ) ;
#285 = APPROVAL_PERSON_ORGANIZATION ( #116, #39, #328 ) ;
#286 = COORDINATED_UNIVERSAL_TIME_OFFSET ( 5, 0, .BEHIND. ) ;
#287 = SHAPE_DEFINITION_REPRESENTATION ( #53, #33 ) ;
#288 = ORIENTED_EDGE ( 'NONE', *, *, #94, .F. ) ;
#289 = CIRCLE ( 'NONE', #240, 0.4944322300693971800 ) ;
#290 = SPHERICAL_SURFACE ( 'NONE', #3, 4.137716535433070500 ) ;
#291 = FACE_OUTER_BOUND ( 'NONE', #220, .T. ) ;
#292 = VECTOR ( 'NONE', #69, 39.37007874015748100 ) ;
#293 = CONICAL_SURFACE ( 'NONE', #319, 0.4999999999999999400, 0.7562867776345831800 ) ;
#294 = EDGE_CURVE ( 'NONE', #233, #271, #289, .T. ) ;
#295 = AXIS2_PLACEMENT_3D ( 'NONE', #47, #324, #115 ) ;
#296 = PERSON_AND_ORGANIZATION ( #196, #205 ) ;
#297 = FACE_OUTER_BOUND ( 'NONE', #156, .T. ) ;
#298 = DIRECTION ( 'NONE',  ( 0.0000000000000000000, -1.000000000000000000, -1.707404996040164800E-016 ) ) ;
#299 = APPROVAL_PERSON_ORGANIZATION ( #207, #152, #180 ) ;
#300 = SPHERICAL_SURFACE ( 'NONE', #185, 8.592559055118110600 ) ;
#301 = DATE_AND_TIME ( #304, #322 ) ;
#302 = EDGE_CURVE ( 'NONE', #271, #62, #183, .T. ) ;
#303 = CIRCLE ( 'NONE', #251, 8.592559055118110600 ) ;
#304 = CALENDAR_DATE ( 2018, 1, 6 ) ;
#305 = ORIENTED_EDGE ( 'NONE', *, *, #86, .T. ) ;
#306 = ORIENTED_EDGE ( 'NONE', *, *, #219, .T. ) ;
#307 = PERSON_AND_ORGANIZATION_ROLE ( 'creator' ) ;
#308 = EDGE_CURVE ( 'NONE', #193, #212, #148, .T. ) ;
#309 = DIRECTION ( 'NONE',  ( -1.224646799147353200E-016, -1.000000000000000000, 0.0000000000000000000 ) ) ;
#310 = CARTESIAN_POINT ( 'NONE',  ( 0.0000000000000000000, -4.423145898146438300E-018, 0.08765894013430541900 ) ) ;
#311 = CIRCLE ( 'NONE', #91, 0.4999999999999999400 ) ;
#312 = DIRECTION ( 'NONE',  ( 0.0000000000000000000, -1.000000000000000000, -1.271727305516534400E-016 ) ) ;
#313 = ADVANCED_FACE ( 'NONE', ( #41 ), #153, .T. ) ;
#314 = CYLINDRICAL_SURFACE ( 'NONE', #216, 0.4999999999999999400 ) ;
#315 = FACE_OUTER_BOUND ( 'NONE', #263, .T. ) ;
#316 = DIRECTION ( 'NONE',  ( 0.0000000000000000000, -1.000000000000000000, -1.878145495644181100E-016 ) ) ;
#317 = CARTESIAN_POINT ( 'NONE',  ( 6.123233995736764800E-017, 0.4999999999999999400, -0.07146683298193228000 ) ) ;
#318 = CC_DESIGN_APPROVAL ( #87, ( #99 ) ) ;
#319 = AXIS2_PLACEMENT_3D ( 'NONE', #123, #155, #172 ) ;
#320 = DIRECTION ( 'NONE',  ( 0.0000000000000000000, 0.0000000000000000000, 1.000000000000000000 ) ) ;
#321 = DIRECTION ( 'NONE',  ( 0.0000000000000000000, -1.000000000000000000, -1.878145495644181100E-016 ) ) ;
#322 = LOCAL_TIME ( 14, 9, 12.00000000000000000, #286 ) ;
#323 =( LENGTH_UNIT ( ) NAMED_UNIT ( * ) SI_UNIT ( $, .METRE. ) );
#324 = DIRECTION ( 'NONE',  ( -1.000000000000000000, 0.0000000000000000000, 0.0000000000000000000 ) ) ;
#325 = CARTESIAN_POINT ( 'NONE',  ( 0.0000000000000000000, 0.0000000000000000000, 4.201296195536746900 ) ) ;
#326 = DIRECTION ( 'NONE',  ( 1.000000000000000000, 0.0000000000000000000, 0.0000000000000000000 ) ) ;
#327 = CIRCLE ( 'NONE', #37, 0.4944322300693971800 ) ;
#328 = APPROVAL_ROLE ( '' ) ;
#329 = ORIENTED_EDGE ( 'NONE', *, *, #58, .T. ) ;
#330 = CIRCLE ( 'NONE', #223, 0.4999999999999999400 ) ;
ENDSEC;
END-ISO-10303-21;
