  0
SECTION
  2
HEADER
  9
$ACADVER
  1
AC1015
  9
$ACADMAINTVER
 70
    10
  9
$DWGCODEPAGE
  3
ANSI_1252
  9
$INSBASE
 10
0.0
 20
0.0
 30
0.0
  9
$EXTMIN
 10
3.95860145339469
 20
9.184542516288423
 30
0.0
  9
$EXTMAX
 10
15.47342174706307
 20
13.66029824025477
 30
0.18
  9
$LIMMIN
 10
0.0
 20
0.0
  9
$LIMMAX
 10
17.0
 20
11.0
  9
$ORTHOMODE
 70
     0
  9
$REGENMODE
 70
     1
  9
$FILLMODE
 70
     1
  9
$QTEXTMODE
 70
     0
  9
$MIRRTEXT
 70
     0
  9
$LTSCALE
 40
0.25
  9
$ATTMODE
 70
     1
  9
$TEXTSIZE
 40
0.0800000000000001
  9
$TRACEWID
 40
0.05
  9
$TEXTSTYLE
  7
STANDARD
  9
$CLAYER
  8
BORDER
  9
$CELTYPE
  6
BYLAYER
  9
$CECOLOR
 62
   256
  9
$CELTSCALE
 40
1.0
  9
$DISPSILH
 70
     0
  9
$DIMSCALE
 40
0.4
  9
$DIMASZ
 40
0.25
  9
$DIMEXO
 40
0.0625
  9
$DIMDLI
 40
0.38
  9
$DIMRND
 40
0.0
  9
$DIMDLE
 40
0.0
  9
$DIMEXE
 40
0.06
  9
$DIMTP
 40
0.0
  9
$DIMTM
 40
0.0
  9
$DIMTXT
 40
0.2
  9
$DIMCEN
 40
0.09
  9
$DIMTSZ
 40
0.0
  9
$DIMTOL
 70
     0
  9
$DIMLIM
 70
     0
  9
$DIMTIH
 70
     1
  9
$DIMTOH
 70
     1
  9
$DIMSE1
 70
     0
  9
$DIMSE2
 70
     0
  9
$DIMTAD
 70
     0
  9
$DIMZIN
 70
     0
  9
$DIMBLK
  1

  9
$DIMASO
 70
     0
  9
$DIMSHO
 70
     0
  9
$DIMPOST
  1

  9
$DIMAPOST
  1

  9
$DIMALT
 70
     0
  9
$DIMALTD
 70
     2
  9
$DIMALTF
 40
25.4
  9
$DIMLFAC
 40
1.0
  9
$DIMTOFL
 70
     0
  9
$DIMTVP
 40
0.0
  9
$DIMTIX
 70
     1
  9
$DIMSOXD
 70
     0
  9
$DIMSAH
 70
     0
  9
$DIMBLK1
  1

  9
$DIMBLK2
  1

  9
$DIMSTYLE
  2
STANDARD
  9
$DIMCLRD
 70
     0
  9
$DIMCLRE
 70
     0
  9
$DIMCLRT
 70
     0
  9
$DIMTFAC
 40
1.0
  9
$DIMGAP
 40
0.09
  9
$DIMJUST
 70
     0
  9
$DIMSD1
 70
     0
  9
$DIMSD2
 70
     0
  9
$DIMTOLJ
 70
     1
  9
$DIMTZIN
 70
     0
  9
$DIMALTZ
 70
     0
  9
$DIMALTTZ
 70
     0
  9
$DIMUPT
 70
     0
  9
$DIMDEC
 70
     3
  9
$DIMTDEC
 70
     4
  9
$DIMALTU
 70
     2
  9
$DIMALTTD
 70
     2
  9
$DIMTXSTY
  7
STANDARD
  9
$DIMAUNIT
 70
     0
  9
$DIMADEC
 70
     0
  9
$DIMALTRND
 40
0.0
  9
$DIMAZIN
 70
     0
  9
$DIMDSEP
 70
    46
  9
$DIMATFIT
 70
     3
  9
$DIMFRAC
 70
     0
  9
$DIMLDRBLK
  1

  9
$DIMLUNIT
 70
     2
  9
$DIMLWD
 70
    -2
  9
$DIMLWE
 70
    -2
  9
$DIMTMOVE
 70
     0
  9
$LUNITS
 70
     2
  9
$LUPREC
 70
     3
  9
$SKETCHINC
 40
0.1
  9
$FILLETRAD
 40
0.0
  9
$AUNITS
 70
     0
  9
$AUPREC
 70
     0
  9
$MENU
  1
C:\R13\WIN\ACAD
  9
$ELEVATION
 40
0.0
  9
$PELEVATION
 40
0.0
  9
$THICKNESS
 40
0.0
  9
$LIMCHECK
 70
     0
  9
$CHAMFERA
 40
0.01
  9
$CHAMFERB
 40
0.01
  9
$CHAMFERC
 40
0.0
  9
$CHAMFERD
 40
0.0
  9
$SKPOLY
 70
     0
  9
$TDCREATE
 40
2449547.531668518
  9
$TDUCREATE
 40
2449547.740001851
  9
$TDUPDATE
 40
2452221.509979490
  9
$TDUUPDATE
 40
2452221.718312824
  9
$TDINDWG
 40
1.1260686458
  9
$TDUSRTIMER
 40
1.1260686458
  9
$USRTIMER
 70
     1
  9
$ANGBASE
 50
0.0
  9
$ANGDIR
 70
     0
  9
$PDMODE
 70
     0
  9
$PDSIZE
 40
0.0
  9
$PLINEWID
 40
0.0
  9
$SPLFRAME
 70
     0
  9
$SPLINETYPE
 70
     6
  9
$SPLINESEGS
 70
     8
  9
$HANDSEED
  5
2627
  9
$SURFTAB1
 70
     6
  9
$SURFTAB2
 70
     6
  9
$SURFTYPE
 70
     6
  9
$SURFU
 70
     6
  9
$SURFV
 70
     6
  9
$UCSBASE
  2

  9
$UCSNAME
  2

  9
$UCSORG
 10
0.0
 20
0.0
 30
0.0
  9
$UCSXDIR
 10
1.0
 20
0.0
 30
0.0
  9
$UCSYDIR
 10
0.0
 20
1.0
 30
0.0
  9
$UCSORTHOREF
  2

  9
$UCSORTHOVIEW
 70
     0
  9
$UCSORGTOP
 10
0.0
 20
0.0
 30
0.0
  9
$UCSORGBOTTOM
 10
0.0
 20
0.0
 30
0.0
  9
$UCSORGLEFT
 10
0.0
 20
0.0
 30
0.0
  9
$UCSORGRIGHT
 10
0.0
 20
0.0
 30
0.0
  9
$UCSORGFRONT
 10
0.0
 20
0.0
 30
0.0
  9
$UCSORGBACK
 10
0.0
 20
0.0
 30
0.0
  9
$PUCSBASE
  2

  9
$PUCSNAME
  2

  9
$PUCSORG
 10
4.789028513264677
 20
5.486174343911555
 30
0.0
  9
$PUCSXDIR
 10
1.0
 20
0.0
 30
0.0
  9
$PUCSYDIR
 10
0.0
 20
1.0
 30
0.0
  9
$PUCSORTHOREF
  2

  9
$PUCSORTHOVIEW
 70
     0
  9
$PUCSORGTOP
 10
0.0
 20
0.0
 30
0.0
  9
$PUCSORGBOTTOM
 10
0.0
 20
0.0
 30
0.0
  9
$PUCSORGLEFT
 10
0.0
 20
0.0
 30
0.0
  9
$PUCSORGRIGHT
 10
0.0
 20
0.0
 30
0.0
  9
$PUCSORGFRONT
 10
0.0
 20
0.0
 30
0.0
  9
$PUCSORGBACK
 10
0.0
 20
0.0
 30
0.0
  9
$USERI1
 70
     0
  9
$USERI2
 70
     0
  9
$USERI3
 70
     0
  9
$USERI4
 70
     0
  9
$USERI5
 70
     0
  9
$USERR1
 40
0.0
  9
$USERR2
 40
0.0
  9
$USERR3
 40
0.0
  9
$USERR4
 40
0.0
  9
$USERR5
 40
0.0
  9
$WORLDVIEW
 70
     1
  9
$SHADEDGE
 70
     3
  9
$SHADEDIF
 70
    70
  9
$TILEMODE
 70
     0
  9
$MAXACTVP
 70
    16
  9
$PINSBASE
 10
0.0
 20
0.0
 30
0.0
  9
$PLIMCHECK
 70
     0
  9
$PEXTMIN
 10
0.1056659004338574
 20
0.0638038461537676
 30
0.0
  9
$PEXTMAX
 10
16.14990892582951
 20
11.76051951376358
 30
0.34938
  9
$PLIMMIN
 10
-0.145231053652914
 20
-0.3127067488243171
  9
$PLIMMAX
 10
16.4011043720399
 20
12.47309781615285
  9
$UNITMODE
 70
     0
  9
$VISRETAIN
 70
     0
  9
$PLINEGEN
 70
     0
  9
$PSLTSCALE
 70
     0
  9
$TREEDEPTH
 70
  3020
  9
$CMLSTYLE
  2
STANDARD
  9
$CMLJUST
 70
     0
  9
$CMLSCALE
 40
1.0
  9
$PROXYGRAPHICS
 70
     1
  9
$MEASUREMENT
 70
     0
  9
$CELWEIGHT
370
    -1
  9
$ENDCAPS
280
     0
  9
$JOINSTYLE
280
     0
  9
$LWDISPLAY
290
     0
  9
$INSUNITS
 70
     0
  9
$HYPERLINKBASE
  1

  9
$STYLESHEET
  1

  9
$XEDIT
290
     1
  9
$CEPSNTYPE
380
     0
  9
$PSTYLEMODE
290
     1
  9
$FINGERPRINTGUID
  2
{3C7F23A6-33C8-46FF-807A-0410166EC2DC}
  9
$VERSIONGUID
  2
{F9B15D53-3F45-4078-BCCE-BAECEAA7ABD2}
  9
$EXTNAMES
290
     1
  9
$PSVPSCALE
 40
0.0
  9
$OLESTARTUP
290
     0
  0
ENDSEC
  0
SECTION
  2
CLASSES
  0
CLASS
  1
LWPOLYLINE
  2
AcDbPolyline
  3
AutoCAD 2000
 90
    32768
280
     0
281
     1
  0
CLASS
  1
ACDBDICTIONARYWDFLT
  2
AcDbDictionaryWithDefault
  3
AutoCAD 2000
 90
        0
280
     0
281
     0
  0
CLASS
  1
ACDBPLACEHOLDER
  2
AcDbPlaceHolder
  3
AutoCAD 2000
 90
        0
280
     0
281
     0
  0
CLASS
  1
LAYOUT
  2
AcDbLayout
  3
AutoCAD 2000
 90
        0
280
     0
281
     0
  0
ENDSEC
  0
SECTION
  2
TABLES
  0
TABLE
  2
VPORT
  5
8
330
0
100
AcDbSymbolTable
 70
     1
  0
VPORT
  5
18C0
330
8
100
AcDbSymbolTableRecord
100
AcDbViewportTableRecord
  2
*ACTIVE
 70
     0
 10
0.0
 20
0.0
 11
1.0
 21
1.0
 12
10.27071561725628
 22
12.21367943707233
 13
0.0
 23
0.0
 14
0.005
 24
0.005
 15
0.25
 25
0.25
 16
0.0
 26
0.0
 36
1.0
 17
0.0
 27
0.0
 37
0.0
 40
6.120193812677836
 41
1.490045941807044
 42
50.0
 43
0.0
 44
0.0
 50
0.0
 51
0.0
 71
     0
 72
   100
 73
     1
 74
     0
 75
     0
 76
     0
 77
     0
 78
     0
281
     0
 65
     1
110
0.0
120
0.0
130
0.0
111
1.0
121
0.0
131
0.0
112
0.0
122
1.0
132
0.0
 79
     0
146
0.0
  0
ENDTAB
  0
TABLE
  2
LTYPE
  5
5
330
0
100
AcDbSymbolTable
 70
     3
  0
LTYPE
  5
12
330
5
100
AcDbSymbolTableRecord
100
AcDbLinetypeTableRecord
  2
BYBLOCK
 70
     0
  3

 72
    65
 73
     0
 40
0.0
  0
LTYPE
  5
13
330
5
100
AcDbSymbolTableRecord
100
AcDbLinetypeTableRecord
  2
BYLAYER
 70
     0
  3

 72
    65
 73
     0
 40
0.0
  0
LTYPE
  5
14
330
5
100
AcDbSymbolTableRecord
100
AcDbLinetypeTableRecord
  2
CONTINUOUS
 70
     0
  3
Solid line
 72
    65
 73
     0
 40
0.0
  0
LTYPE
  5
1C
330
5
100
AcDbSymbolTableRecord
100
AcDbLinetypeTableRecord
  2
HIDDEN
 70
     0
  3
__ __ __ __ __ __ __ __ __ __ __ __ __ __ __ __
 72
    65
 73
     2
 40
0.375
 49
0.25
 74
     0
 49
-0.125
 74
     0
  0
LTYPE
  5
11E5
330
5
100
AcDbSymbolTableRecord
100
AcDbLinetypeTableRecord
  2
CENTER
 70
     0
  3
____ _ ____ _ ____ _ ____ _ ____ _ ____ _ ____
 72
    65
 73
     4
 40
2.0
 49
1.25
 74
     0
 49
-0.25
 74
     0
 49
0.25
 74
     0
 49
-0.25
 74
     0
  0
ENDTAB
  0
TABLE
  2
LAYER
  5
2
330
0
100
AcDbSymbolTable
 70
    13
  0
LAYER
  5
F
330
2
100
AcDbSymbolTableRecord
100
AcDbLayerTableRecord
  2
0
 70
     0
 62
     7
  6
CONTINUOUS
370
    -3
390
260F
  0
LAYER
  5
22
330
2
100
AcDbSymbolTableRecord
100
AcDbLayerTableRecord
  2
BORDER
 70
     0
 62
     7
  6
CONTINUOUS
370
    -3
390
260F
  0
LAYER
  5
23
330
2
100
AcDbSymbolTableRecord
100
AcDbLayerTableRecord
  2
SHEET1
 70
     0
 62
     7
  6
CONTINUOUS
370
    -3
390
260F
  0
LAYER
  5
24
330
2
100
AcDbSymbolTableRecord
100
AcDbLayerTableRecord
  2
DIM1
 70
     0
 62
     7
  6
CONTINUOUS
370
    -3
390
260F
  0
LAYER
  5
25
330
2
100
AcDbSymbolTableRecord
100
AcDbLayerTableRecord
  2
SHEET2
 70
     1
 62
     7
  6
CONTINUOUS
370
    -3
390
260F
  0
LAYER
  5
26
330
2
100
AcDbSymbolTableRecord
100
AcDbLayerTableRecord
  2
SHEET3
 70
     1
 62
     7
  6
CONTINUOUS
370
    -3
390
260F
  0
LAYER
  5
2A
330
2
100
AcDbSymbolTableRecord
100
AcDbLayerTableRecord
  2
VIEW-BORDER
 70
     1
 62
     7
  6
CONTINUOUS
370
    -3
390
260F
  0
LAYER
  5
E07
330
2
100
AcDbSymbolTableRecord
100
AcDbLayerTableRecord
  2
COVER
 70
     0
 62
     7
  6
CONTINUOUS
370
    -3
390
260F
  0
LAYER
  5
11C1
330
2
100
AcDbSymbolTableRecord
100
AcDbLayerTableRecord
  2
BODY
 70
     0
 62
     7
  6
CONTINUOUS
370
    -3
390
260F
  0
LAYER
  5
11E7
330
2
100
AcDbSymbolTableRecord
100
AcDbLayerTableRecord
  2
D1
 70
     0
 62
     7
  6
CONTINUOUS
370
    -3
390
260F
  0
LAYER
  5
18C5
330
2
100
AcDbSymbolTableRecord
100
AcDbLayerTableRecord
  2
DIM
 70
     0
 62
     7
  6
CONTINUOUS
370
    -3
390
260F
  0
LAYER
  5
18C6
330
2
100
AcDbSymbolTableRecord
100
AcDbLayerTableRecord
  2
3D
 70
     0
 62
     7
  6
CONTINUOUS
370
    -3
390
260F
  0
LAYER
  5
1BF0
330
2
100
AcDbSymbolTableRecord
100
AcDbLayerTableRecord
  2
SILK-SCREEN
 70
     0
 62
     7
  6
CONTINUOUS
370
    -3
390
260F
  0
ENDTAB
  0
TABLE
  2
STYLE
  5
3
330
0
100
AcDbSymbolTable
 70
     2
  0
STYLE
  5
10
330
3
100
AcDbSymbolTableRecord
100
AcDbTextStyleTableRecord
  2
STANDARD
 70
     0
 40
0.0
 41
1.0
 50
0.0
 71
     0
 42
0.0800000000000001
  3
txt
  4

  0
STYLE
  5
E09
330
3
100
AcDbSymbolTableRecord
100
AcDbTextStyleTableRecord
  2
HL-HD
 70
     0
 40
0.0
 41
1.0
 50
0.0
 71
     0
 42
0.1
  3
S:\dwgs\hl-hd.shx
  4

  0
ENDTAB
  0
TABLE
  2
VIEW
  5
6
330
0
100
AcDbSymbolTable
 70
     1
  0
VIEW
  5
2581
330
6
100
AcDbSymbolTableRecord
100
AcDbViewTableRecord
  2
FULL
 70
     0
 40
24.90884821056726
 10
17.12566485777118
 20
10.59783195903679
 41
34.20796459038351
 11
0.0
 21
0.0
 31
1.0
 12
0.0
 22
0.0
 32
0.0
 42
50.0
 43
0.0
 44
0.0
 50
0.0
 71
     0
281
     0
 72
     0
  0
ENDTAB
  0
TABLE
  2
UCS
  5
7
330
0
100
AcDbSymbolTable
 70
     0
  0
ENDTAB
  0
TABLE
  2
APPID
  5
9
330
0
100
AcDbSymbolTable
 70
     4
  0
APPID
  5
11
330
9
100
AcDbSymbolTableRecord
100
AcDbRegAppTableRecord
  2
ACAD
 70
     0
  0
APPID
  5
2616
330
9
100
AcDbSymbolTableRecord
100
AcDbRegAppTableRecord
  2
CONTENTBLOCKDESCRIPTION
 70
     0
  0
APPID
  5
2617
330
9
100
AcDbSymbolTableRecord
100
AcDbRegAppTableRecord
  2
CONTENTTABDATA
 70
     0
  0
APPID
  5
2618
330
9
100
AcDbSymbolTableRecord
100
AcDbRegAppTableRecord
  2
CONTENTCURRENTTAB
 70
     0
  0
ENDTAB
  0
TABLE
  2
DIMSTYLE
  5
A
330
0
100
AcDbSymbolTable
 70
     1
100
AcDbDimStyleTable
 71
     0
  0
DIMSTYLE
105
12C
330
A
100
AcDbSymbolTableRecord
100
AcDbDimStyleTableRecord
  2
STANDARD
 70
     0
340
10
  0
ENDTAB
  0
TABLE
  2
BLOCK_RECORD
  5
1
330
0
100
AcDbSymbolTable
 70
    16
  0
BLOCK_RECORD
  5
18
330
1
100
AcDbSymbolTableRecord
100
AcDbBlockTableRecord
  2
*MODEL_SPACE
340
2612
  0
BLOCK_RECORD
  5
15
330
1
100
AcDbSymbolTableRecord
100
AcDbBlockTableRecord
  2
*PAPER_SPACE
340
2613
  0
BLOCK_RECORD
  5
67E
330
1
100
AcDbSymbolTableRecord
100
AcDbBlockTableRecord
  2
BNC-SIDE
340
0
102
{BLKREFS
331
69F
102
}
  0
BLOCK_RECORD
  5
6A0
330
1
100
AcDbSymbolTableRecord
100
AcDbBlockTableRecord
  2
TOGGLE-SIDE
340
0
102
{BLKREFS
331
6C6
102
}
  0
BLOCK_RECORD
  5
919
330
1
100
AcDbSymbolTableRecord
100
AcDbBlockTableRecord
  2
PFH0256
340
0
  0
BLOCK_RECORD
  5
EC7
330
1
100
AcDbSymbolTableRecord
100
AcDbBlockTableRecord
  2
BNC
340
0
102
{BLKREFS
331
1C1F
331
1BF4
102
}
  0
BLOCK_RECORD
  5
EDB
330
1
100
AcDbSymbolTableRecord
100
AcDbBlockTableRecord
  2
LOGO
340
0
102
{BLKREFS
331
1C27
331
1C05
102
}
  0
BLOCK_RECORD
  5
11B0
330
1
100
AcDbSymbolTableRecord
100
AcDbBlockTableRecord
  2
TOGGLE-TOP
340
0
102
{BLKREFS
331
1C2A
331
1BF2
102
}
  0
BLOCK_RECORD
  5
18C7
330
1
100
AcDbSymbolTableRecord
100
AcDbBlockTableRecord
  2
JUNK
340
0
  0
BLOCK_RECORD
  5
1BE1
330
1
100
AcDbSymbolTableRecord
100
AcDbBlockTableRecord
  2
CE-MARK
340
0
102
{BLKREFS
331
1C2D
331
1BF6
331
25F9
102
}
  0
BLOCK_RECORD
  5
1FF2
330
1
100
AcDbSymbolTableRecord
100
AcDbBlockTableRecord
  2
*X8
340
0
102
{BLKREFS
331
1FF4
102
}
  0
BLOCK_RECORD
  5
21DB
330
1
100
AcDbSymbolTableRecord
100
AcDbBlockTableRecord
  2
*X9
340
0
102
{BLKREFS
331
21DD
102
}
  0
BLOCK_RECORD
  5
2205
330
1
100
AcDbSymbolTableRecord
100
AcDbBlockTableRecord
  2
*X10
340
0
102
{BLKREFS
331
2207
102
}
  0
BLOCK_RECORD
  5
2367
330
1
100
AcDbSymbolTableRecord
100
AcDbBlockTableRecord
  2
*X11
340
0
102
{BLKREFS
331
2369
102
}
  0
BLOCK_RECORD
  5
24B9
330
1
100
AcDbSymbolTableRecord
100
AcDbBlockTableRecord
  2
*X12
340
0
102
{BLKREFS
331
24BB
102
}
  0
BLOCK_RECORD
  5
25F8
330
1
100
AcDbSymbolTableRecord
100
AcDbBlockTableRecord
  2
A$C7304
340
0
102
{BLKREFS
331
25FC
102
}
  0
BLOCK_RECORD
  5
2619
330
1
100
AcDbSymbolTableRecord
100
AcDbBlockTableRecord
  2
Copyright00
340
0
102
{BLKREFS
331
261F
102
}
  0
BLOCK_RECORD
  5
2620
330
1
100
AcDbSymbolTableRecord
100
AcDbBlockTableRecord
  2
Esd-info
340
0
102
{BLKREFS
331
2626
102
}
  0
ENDTAB
  0
ENDSEC
  0
SECTION
  2
BLOCKS
  0
BLOCK
  5
2E
330
18
100
AcDbEntity
  8
0
100
AcDbBlockBegin
  2
*MODEL_SPACE
 70
     0
 10
0.0
 20
0.0
 30
0.0
  3
*MODEL_SPACE
  1

  0
ENDBLK
  5
2F
330
18
100
AcDbEntity
  8
0
100
AcDbBlockEnd
  0
BLOCK
  5
2C
330
15
100
AcDbEntity
 67
     1
  8
0
100
AcDbBlockBegin
  2
*PAPER_SPACE
 70
     0
 10
0.0
 20
0.0
 30
0.0
  3
*PAPER_SPACE
  1

  0
ENDBLK
  5
2D
330
15
100
AcDbEntity
 67
     1
  8
0
100
AcDbBlockEnd
  0
BLOCK
  5
69D
330
67E
100
AcDbEntity
  8
0
100
AcDbBlockBegin
  2
BNC-SIDE
 70
     0
 10
0.0
 20
0.0
 30
0.0
  3
BNC-SIDE
  1

  0
LINE
  5
67F
330
67E
100
AcDbEntity
  8
0
100
AcDbLine
 10
-0.032
 20
0.2189999999999999
 30
0.0
 11
0.0
 21
0.218999999999999
 31
0.0
  0
LINE
  5
680
330
67E
100
AcDbEntity
  8
0
100
AcDbLine
 10
-0.032
 20
-0.2190000000000003
 30
0.0
 11
0.0
 21
-0.2190000000000007
 31
0.0
  0
LINE
  5
681
330
67E
100
AcDbEntity
  8
0
100
AcDbLine
 10
-0.561
 20
-0.0430000000000002
 30
0.0
 11
-0.4079999999999995
 21
-0.0429999999999997
 31
0.0
  0
LINE
  5
682
330
67E
100
AcDbEntity
  8
0
100
AcDbLine
 10
-0.561
 20
0.0430000000000002
 30
0.0
 11
-0.4079999999999995
 21
0.0430000000000002
 31
0.0
  0
LINE
  5
683
330
67E
100
AcDbEntity
  8
0
100
AcDbLine
 10
-0.561
 20
-0.0430000000000002
 30
0.0
 11
-0.561
 21
0.0430000000000002
 31
0.0
  0
LINE
  5
684
330
67E
100
AcDbEntity
  8
0
100
AcDbLine
 10
-0.3092023773349535
 20
-0.1815389854954463
 30
0.0
 11
-0.283789098417035
 21
0.1874999999999996
 31
0.0
  0
LINE
  5
685
330
67E
100
AcDbEntity
  8
0
100
AcDbLine
 10
-0.4079999999999995
 20
-0.0750000000000002
 30
0.0
 11
-0.4079999999999995
 21
0.0750000000000011
 31
0.0
  0
LINE
  5
686
330
67E
100
AcDbEntity
  8
0
100
AcDbLine
 10
-0.3179999999999996
 20
-0.1625000000000014
 30
0.0
 11
-0.3179999999999996
 21
0.1624999999999996
 31
0.0
  0
LINE
  5
687
330
67E
100
AcDbEntity
  8
0
100
AcDbLine
 10
-0.1091392171575372
 20
-0.1875
 30
0.0
 11
-0.0833154425191349
 21
0.1874999999999996
 31
0.0
  0
LINE
  5
688
330
67E
100
AcDbEntity
  8
0
100
AcDbLine
 10
-0.1492339483371188
 20
-0.1875000000000009
 30
0.0
 11
-0.1234101736987139
 21
0.1874999999999996
 31
0.0
  0
LINE
  5
689
330
67E
100
AcDbEntity
  8
0
100
AcDbLine
 10
-0.1893286795166986
 20
-0.1875000000000009
 30
0.0
 11
-0.1635049048782955
 21
0.1874999999999996
 31
0.0
  0
LINE
  5
68A
330
67E
100
AcDbEntity
  8
0
100
AcDbLine
 10
-0.2294234106962785
 20
-0.1875000000000004
 30
0.0
 11
-0.2035996360578753
 21
0.1874999999999996
 31
0.0
  0
LINE
  5
68B
330
67E
100
AcDbEntity
  8
0
100
AcDbLine
 10
-0.2695181418758583
 20
-0.1875000000000004
 30
0.0
 11
-0.2436943672374552
 21
0.1874999999999996
 31
0.0
  0
LINE
  5
68C
330
67E
100
AcDbEntity
  8
0
100
AcDbLine
 10
-0.032
 20
-0.2190000000000003
 30
0.0
 11
-0.032
 21
0.2189999999999999
 31
0.0
  0
LINE
  5
68D
330
67E
100
AcDbEntity
  8
0
100
AcDbLine
 10
-0.2929999999999992
 20
-0.1875000000000013
 30
0.0
 11
-0.032
 21
-0.1875000000000004
 31
0.0
  0
ARC
  5
68E
330
67E
100
AcDbEntity
  8
0
100
AcDbCircle
 10
-0.2929999999999992
 20
-0.1625000000000014
 30
0.0
 40
0.025
100
AcDbArc
 50
180.0
 51
270.0000000000001
  0
LINE
  5
68F
330
67E
100
AcDbEntity
  8
0
100
AcDbLine
 10
-0.3829999999999991
 20
-0.1000000000000001
 30
0.0
 11
-0.3179999999999996
 21
-0.1000000000000001
 31
0.0
  0
ARC
  5
690
330
67E
100
AcDbEntity
  8
0
100
AcDbCircle
 10
-0.3829999999999991
 20
-0.0750000000000002
 30
0.0
 40
0.025
100
AcDbArc
 50
180.0
 51
270.0
  0
LINE
  5
691
330
67E
100
AcDbEntity
  8
0
100
AcDbLine
 10
-0.2929999999999992
 20
0.1874999999999996
 30
0.0
 11
-0.032
 21
0.1874999999999996
 31
0.0
  0
LINE
  5
692
330
67E
100
AcDbEntity
  8
0
100
AcDbLine
 10
-0.3829999999999991
 20
0.100000000000001
 30
0.0
 11
-0.3179999999999996
 21
0.1000000000000005
 31
0.0
  0
ARC
  5
693
330
67E
100
AcDbEntity
  8
0
100
AcDbCircle
 10
-0.3829999999999991
 20
0.0750000000000011
 30
0.0
 40
0.025
100
AcDbArc
 50
90.0
 51
180.0
  0
ARC
  5
694
330
67E
100
AcDbEntity
  8
0
100
AcDbCircle
 10
-0.2929999999999992
 20
0.1624999999999996
 30
0.0
 40
0.025
100
AcDbArc
 50
90.0
 51
180.0
  0
CIRCLE
  5
695
330
67E
100
AcDbEntity
  8
0
100
AcDbCircle
 10
0.29
 20
0.0
 30
0.0
 40
0.04
  0
LINE
  5
696
330
67E
100
AcDbEntity
  8
0
100
AcDbLine
 10
0.0
 20
-0.2447499999999994
 30
0.0
 11
0.0
 21
0.2447499999999998
 31
0.0
  0
LINE
  5
697
330
67E
100
AcDbEntity
  8
0
100
AcDbLine
 10
0.0449999999999999
 20
-0.2447499999999994
 30
0.0
 11
0.0449999999999999
 21
0.2447499999999998
 31
0.0
  0
LINE
  5
698
330
67E
100
AcDbEntity
  8
0
100
AcDbLine
 10
0.4649999999999999
 20
-0.1877500000000003
 30
0.0
 11
0.4649999999999999
 21
0.1877499999999999
 31
0.0
  0
LINE
  5
699
330
67E
100
AcDbEntity
  8
0
100
AcDbLine
 10
0.4649999999999999
 20
-0.1877500000000003
 30
0.0
 11
0.0449999999999991
 21
-0.1877500000000008
 31
0.0
  0
LINE
  5
69A
330
67E
100
AcDbEntity
  8
0
100
AcDbLine
 10
0.0
 20
-0.2447499999999998
 30
0.0
 11
0.0449999999999999
 21
-0.2447499999999998
 31
0.0
  0
LINE
  5
69B
330
67E
100
AcDbEntity
  8
0
100
AcDbLine
 10
0.4649999999999999
 20
0.1877499999999999
 30
0.0
 11
0.0449999999999999
 21
0.1877500000000003
 31
0.0
  0
LINE
  5
69C
330
67E
100
AcDbEntity
  8
0
100
AcDbLine
 10
0.0
 20
0.2447499999999994
 30
0.0
 11
0.0449999999999999
 21
0.2447499999999998
 31
0.0
  0
ENDBLK
  5
69E
330
67E
100
AcDbEntity
  8
0
100
AcDbBlockEnd
  0
BLOCK
  5
6C4
330
6A0
100
AcDbEntity
  8
0
100
AcDbBlockBegin
  2
TOGGLE-SIDE
 70
     0
 10
0.0
 20
0.0
 30
0.0
  3
TOGGLE-SIDE
  1

  0
LINE
  5
6A1
330
6A0
100
AcDbEntity
  8
DIM1
100
AcDbLine
 10
-0.2199999999999993
 20
0.0512139757157248
 30
0.0
 11
-0.543211939159821
 21
-0.0204403860984801
 31
0.0
  0
LINE
  5
6A2
330
6A0
100
AcDbEntity
  8
DIM1
100
AcDbLine
 10
-0.2199999999999997
 20
-0.0512139757157248
 30
0.0
 11
-0.5215679777660474
 21
-0.1180699868104824
 31
0.0
  0
LWPOLYLINE
  5
6A3
330
6A0
100
AcDbEntity
  8
DIM1
100
AcDbPolyline
 90
        4
 70
     1
 43
0.0
 10
0.0
 20
-0.1600000000000001
 10
0.0
 20
0.1600000000000001
 10
0.3399999999999999
 20
0.1600000000000001
 10
0.3399999999999999
 20
-0.1600000000000001
  0
LWPOLYLINE
  5
6A9
330
6A0
100
AcDbEntity
  8
DIM1
100
AcDbPolyline
 90
        4
 70
     1
 43
0.0
 10
-0.2199999999999997
 20
-0.0874999999999995
 10
-0.2199999999999997
 20
0.0875000000000004
 10
0.0
 20
0.0875000000000004
 10
0.0
 20
-0.0874999999999995
  0
LINE
  5
6AF
330
6A0
100
AcDbEntity
  8
DIM1
100
AcDbLine
 10
-0.2199999999999997
 20
0.0875000000000004
 30
0.0
 11
-0.2037188966267727
 21
-0.0874999999999986
 31
0.0
  0
LINE
  5
6B0
330
6A0
100
AcDbEntity
  8
DIM1
100
AcDbLine
 10
-0.1999999999999997
 20
0.0875000000000004
 30
0.0
 11
-0.1837188966267726
 21
-0.0874999999999986
 31
0.0
  0
LINE
  5
6B1
330
6A0
100
AcDbEntity
  8
DIM1
100
AcDbLine
 10
-0.1399999999999997
 20
0.0875000000000004
 30
0.0
 11
-0.1237188966267726
 21
-0.0874999999999986
 31
0.0
  0
LINE
  5
6B2
330
6A0
100
AcDbEntity
  8
DIM1
100
AcDbLine
 10
-0.1199999999999997
 20
0.0875000000000004
 30
0.0
 11
-0.1037188966267726
 21
-0.0874999999999986
 31
0.0
  0
LINE
  5
6B3
330
6A0
100
AcDbEntity
  8
DIM1
100
AcDbLine
 10
-0.0999999999999997
 20
0.0875000000000004
 30
0.0
 11
-0.0837188966267726
 21
-0.0874999999999986
 31
0.0
  0
LINE
  5
6B4
330
6A0
100
AcDbEntity
  8
DIM1
100
AcDbLine
 10
-0.0799999999999996
 20
0.0875000000000004
 30
0.0
 11
-0.0637188966267726
 21
-0.0874999999999986
 31
0.0
  0
LINE
  5
6B5
330
6A0
100
AcDbEntity
  8
DIM1
100
AcDbLine
 10
-0.0599999999999996
 20
0.0875000000000004
 30
0.0
 11
-0.0437188966267725
 21
-0.0874999999999986
 31
0.0
  0
LINE
  5
6B6
330
6A0
100
AcDbEntity
  8
DIM1
100
AcDbLine
 10
-0.0399999999999996
 20
0.0875000000000004
 30
0.0
 11
-0.0237188966267725
 21
-0.0874999999999986
 31
0.0
  0
LINE
  5
6B7
330
6A0
100
AcDbEntity
  8
DIM1
100
AcDbLine
 10
-0.0199999999999996
 20
0.0875000000000004
 30
0.0
 11
-0.0037188966267725
 21
-0.0874999999999986
 31
0.0
  0
LINE
  5
6B8
330
6A0
100
AcDbEntity
  8
DIM1
100
AcDbLine
 10
-0.1799999999999997
 20
0.0875000000000004
 30
0.0
 11
-0.1637188966267726
 21
-0.0874999999999986
 31
0.0
  0
LINE
  5
6B9
330
6A0
100
AcDbEntity
  8
DIM1
100
AcDbLine
 10
-0.1599999999999997
 20
0.0875000000000004
 30
0.0
 11
-0.1437188966267726
 21
-0.0874999999999986
 31
0.0
  0
LINE
  5
6BA
330
6A0
100
AcDbEntity
  8
DIM1
100
AcDbLine
 10
0.4699999999999998
 20
0.0149999999999997
 30
0.0
 11
0.4699999999999998
 21
-0.0149999999999997
 31
0.0
  0
LINE
  5
6BB
330
6A0
100
AcDbEntity
  8
DIM1
100
AcDbLine
 10
0.3399999999999999
 20
-0.085
 30
0.0
 11
0.4699999999999998
 21
-0.085
 31
0.0
  0
LINE
  5
6BC
330
6A0
100
AcDbEntity
  8
DIM1
100
AcDbLine
 10
0.3399999999999999
 20
-0.1149999999999993
 30
0.0
 11
0.4699999999999998
 21
-0.1149999999999993
 31
0.0
  0
LINE
  5
6BD
330
6A0
100
AcDbEntity
  8
DIM1
100
AcDbLine
 10
0.4699999999999998
 20
-0.085
 30
0.0
 11
0.4699999999999998
 21
-0.1149999999999993
 31
0.0
  0
LINE
  5
6BE
330
6A0
100
AcDbEntity
  8
DIM1
100
AcDbLine
 10
0.3399999999999999
 20
-0.0149999999999997
 30
0.0
 11
0.4699999999999998
 21
-0.0149999999999997
 31
0.0
  0
LINE
  5
6BF
330
6A0
100
AcDbEntity
  8
DIM1
100
AcDbLine
 10
0.3399999999999999
 20
0.1149999999999993
 30
0.0
 11
0.4699999999999998
 21
0.1149999999999993
 31
0.0
  0
LINE
  5
6C0
330
6A0
100
AcDbEntity
  8
DIM1
100
AcDbLine
 10
0.3399999999999999
 20
0.085
 30
0.0
 11
0.4699999999999998
 21
0.085
 31
0.0
  0
LINE
  5
6C1
330
6A0
100
AcDbEntity
  8
DIM1
100
AcDbLine
 10
0.4699999999999998
 20
0.1149999999999993
 30
0.0
 11
0.4699999999999998
 21
0.085
 31
0.0
  0
LINE
  5
6C2
330
6A0
100
AcDbEntity
  8
DIM1
100
AcDbLine
 10
0.3399999999999999
 20
0.0149999999999997
 30
0.0
 11
0.4699999999999998
 21
0.0149999999999997
 31
0.0
  0
ARC
  5
6C3
330
6A0
100
AcDbEntity
  8
DIM1
100
AcDbCircle
 10
-0.5308348717582648
 20
-0.0689104320321095
 30
0.0
 40
0.0500253650688412
100
AcDbArc
 50
104.3246470605813
 51
280.6753529394181
  0
ENDBLK
  5
6C5
330
6A0
100
AcDbEntity
  8
0
100
AcDbBlockEnd
  0
BLOCK
  5
91A
330
919
100
AcDbEntity
  8
0
100
AcDbBlockBegin
  2
PFH0256
 70
     0
 10
0.0
 20
0.0
 30
0.0
  3
PFH0256
  1

  0
LINE
  5
91B
330
919
100
AcDbEntity
  8
0
100
AcDbLine
 10
0.0454395520852273
 20
-0.041500000000001
 30
0.0
 11
0.2379999999999995
 21
-0.0415000000000045
 31
0.0
  0
LINE
  5
91C
330
919
100
AcDbEntity
  8
0
100
AcDbLine
 10
0.045439552085238
 20
0.0414999999999957
 30
0.0
 11
0.2379999999999995
 21
0.0414999999999957
 31
0.0
  0
LINE
  5
91D
330
919
100
AcDbEntity
  8
0
100
AcDbLine
 10
0.0
 20
0.0809999999999995
 30
0.0
 11
0.0
 21
-0.0810000000000031
 31
0.0
  0
LINE
  5
91E
330
919
100
AcDbEntity
  8
0
100
AcDbLine
 10
0.0454395520852291
 20
-0.0415000000000028
 30
0.0
 11
0.0
 21
-0.0810000000000013
 31
0.0
  0
LINE
  5
91F
330
919
100
AcDbEntity
  8
0
100
AcDbLine
 10
0.0454395520852344
 20
0.0414999999999974
 30
0.0
 11
0.0
 21
0.0810000000000013
 31
0.0
  0
LINE
  5
920
330
919
100
AcDbEntity
  8
0
100
AcDbLine
 10
0.2379999999999995
 20
0.0414999999999957
 30
0.0
 11
0.2379999999999995
 21
-0.0415000000000028
 31
0.0
  0
ENDBLK
  5
921
330
919
100
AcDbEntity
  8
0
100
AcDbBlockEnd
  0
BLOCK
  5
ED3
330
EC7
100
AcDbEntity
  8
0
100
AcDbBlockBegin
  2
BNC
 70
     0
 10
0.0
 20
0.0
 30
0.0
  3
BNC
  1

  0
CIRCLE
  5
EC8
330
EC7
100
AcDbEntity
  8
0
100
AcDbCircle
 10
0.0
 20
0.0
 30
0.0
 40
0.2445
  0
CIRCLE
  5
EC9
330
EC7
100
AcDbEntity
  8
0
100
AcDbCircle
 10
0.0
 20
0.0
 30
0.0
 40
0.16925
  0
CIRCLE
  5
ECA
330
EC7
100
AcDbEntity
  8
0
100
AcDbCircle
 10
0.0
 20
0.0
 30
0.0
 40
0.18925
  0
CIRCLE
  5
ECB
330
EC7
100
AcDbEntity
  8
0
100
AcDbCircle
 10
0.0
 20
0.0
 30
0.0
 40
0.0875
  0
CIRCLE
  5
ECC
330
EC7
100
AcDbEntity
  8
0
100
AcDbCircle
 10
0.0
 20
0.0
 30
0.0
 40
0.0335
  0
ARC
  5
ECD
330
EC7
100
AcDbEntity
  8
0
100
AcDbCircle
 10
0.0
 20
0.0
 30
0.0
 40
0.2175
100
AcDbArc
 50
169.8042640531619
 51
190.1957359468375
  0
LINE
  5
ECE
330
EC7
100
AcDbEntity
  8
0
100
AcDbLine
 10
-0.2140654105641548
 20
-0.0385000000000009
 30
0.0
 11
-0.1852925052450853
 21
-0.0385000000000009
 31
0.0
  0
LINE
  5
ECF
330
EC7
100
AcDbEntity
  8
0
100
AcDbLine
 10
-0.2140654105641548
 20
0.0385000000000009
 30
0.0
 11
-0.1852925052450853
 21
0.0385000000000009
 31
0.0
  0
ARC
  5
ED0
330
EC7
100
AcDbEntity
  8
0
100
AcDbCircle
 10
0.0
 20
0.0
 30
0.0
 40
0.2175
100
AcDbArc
 50
349.8042640531624
 51
10.195735946838
  0
LINE
  5
ED1
330
EC7
100
AcDbEntity
  8
0
100
AcDbLine
 10
0.1852925052450853
 20
-0.0385000000000009
 30
0.0
 11
0.2140654105641548
 21
-0.0385000000000009
 31
0.0
  0
LINE
  5
ED2
330
EC7
100
AcDbEntity
  8
0
100
AcDbLine
 10
0.1852925052450853
 20
0.0385000000000009
 30
0.0
 11
0.2140654105641548
 21
0.0385000000000009
 31
0.0
  0
ENDBLK
  5
ED4
330
EC7
100
AcDbEntity
  8
0
100
AcDbBlockEnd
  0
BLOCK
  5
FA3
330
EDB
100
AcDbEntity
  8
0
100
AcDbBlockBegin
  2
LOGO
 70
     0
 10
0.0
 20
0.0
 30
0.0
  3
LOGO
  1

  0
SOLID
  5
EDC
330
EDB
100
AcDbEntity
  8
0
100
AcDbTrace
 10
0.3969004331716075
 20
0.1688693648503277
 30
0.34938
 11
0.2836248862966055
 21
0.1688693648503277
 31
0.34938
 12
0.3969004331716075
 22
0.1224673336003286
 32
0.34938
 13
0.2836248862966055
 23
0.1224673336003286
 33
0.34938
  0
SOLID
  5
EDD
330
EDB
100
AcDbEntity
  8
0
100
AcDbTrace
 10
-0.0002463637033898
 20
0.2753210836003279
 30
0.34938
 11
0.2290342612966079
 21
0.2753210836003279
 31
0.34938
 12
-0.0002463637033898
 22
0.230283817975327
 32
0.34938
 13
0.2290342612966079
 23
0.230283817975327
 33
0.34938
  0
SOLID
  5
EDE
330
EDB
100
AcDbEntity
  8
0
100
AcDbTrace
 10
0.2290342612966079
 20
0.2753210836003279
 30
0.34938
 11
0.2836248862966055
 21
0.2753210836003279
 31
0.34938
 12
0.2290342612966079
 22
0.0023679586003289
 32
0.34938
 13
0.2836248862966055
 23
0.0023679586003289
 33
0.34938
  0
SOLID
  5
EDF
330
EDB
100
AcDbEntity
  8
0
100
AcDbTrace
 10
0.0870986362966075
 20
0.0023679586003289
 30
0.34938
 11
0.1416892612966087
 21
0.0023679586003289
 31
0.34938
 12
0.0870986362966075
 22
0.230283817975327
 32
0.34938
 13
0.1416892612966087
 23
0.230283817975327
 33
0.34938
  0
LWPOLYLINE
  5
EE0
330
EDB
100
AcDbEntity
  8
0
100
AcDbPolyline
 90
        7
 70
     0
 43
0.0
 38
0.34938
 10
1.654340931787693
 20
0.1736217909448361
 42
0.0019568917075044
 10
1.732505417843981
 20
0.15769740909175
 42
-0.2136964031287707
 10
1.785666864155011
 20
0.1205405459365116
 42
-0.2075585583027768
 10
1.793018378476226
 20
0.0644901002966312
 42
-0.2311984101377718
 10
1.741309333877943
 20
0.0070920166123982
 42
-0.176335766587305
 10
1.633376352180563
 20
0.0034211734554099
 42
-0.2115906095274752
 10
1.575984146587131
 20
0.0550015678018636
  0
LWPOLYLINE
  5
EE9
330
EDB
100
AcDbEntity
  8
0
100
AcDbPolyline
 90
       14
 70
     0
 43
0.0
 38
0.34938
 10
1.579299586241436
 20
0.0843972144389809
 10
1.623066106608236
 20
0.0843972144389809
 42
0.3020440864755188
 10
1.651055533458096
 20
0.0431613087516074
 42
0.2653699712401423
 10
1.726099380940761
 20
0.0530470873913376
 42
0.6356064402471244
 10
1.713986896784216
 20
0.1095024358177428
 42
-0.0009437836138568
 10
1.624514479759591
 20
0.1303534814925382
 42
-0.3442454331168749
 10
1.571718396019566
 20
0.1960609485431015
 42
-0.322222187521162
 10
1.625865042901512
 20
0.2735923310109434
 42
-0.1417364340760132
 10
1.718418728741468
 20
0.2787922754761527
 42
-0.3337744805077131
 10
1.784828828119628
 20
0.2001117393778391
 10
1.730855726628863
 20
0.2001117393778404
 42
0.3019792396306431
 10
1.705071514001385
 20
0.2359443165838013
 42
0.1972875622237244
 10
1.64783350196787
 20
0.2342804008325925
 42
0.728374493267646
 10
1.654340931787693
 20
0.1736217909448361
 42
0.0019568917075044
  0
LINE
  5
EF9
330
EDB
100
AcDbEntity
  8
0
100
AcDbLine
 10
0.9905734800466134
 20
0.2753210836003279
 30
0.34938
 11
0.9332533237966114
 21
0.2753210836003279
 31
0.34938
  0
LINE
  5
EFA
330
EDB
100
AcDbEntity
  8
0
100
AcDbLine
 10
0.9332533237966114
 20
0.0023679586003289
 30
0.34938
 11
1.127050042546613
 21
0.0023679586003289
 31
0.34938
  0
SOLID
  5
EFB
330
EDB
100
AcDbEntity
  8
0
100
AcDbTrace
 10
0.5813078509755876
 20
0.0012218950025402
 30
0.34938
 11
0.5813078509755876
 21
0.0357101042564403
 31
0.34938
 12
0.6525360424111142
 22
0.0257468438053139
 32
0.34938
 13
0.6333886791219925
 23
0.0518046019082594
 33
0.34938
  0
LWPOLYLINE
  5
EFC
330
EDB
100
AcDbEntity
  8
0
100
AcDbPolyline
 90
        2
 70
     0
 43
0.010918125
 38
0.34938
 10
0.4630093563372686
 20
0.0925980808906943
 42
0.7616390336395551
 10
0.7003338419637988
 20
0.0950970736731694
 42
0.7616390336395551
  0
LWPOLYLINE
  5
F00
330
EDB
100
AcDbEntity
  8
0
100
AcDbPolyline
 90
        2
 70
     0
 43
0.010918125
 38
0.34938
 10
0.6983012465547152
 20
0.1913916908167814
 42
0.7414713431190223
 10
0.4634643884302854
 20
0.1900051802242113
 42
0.7414713431190223
  0
LWPOLYLINE
  5
F04
330
EDB
100
AcDbEntity
  8
0
100
AcDbPolyline
 90
        4
 70
     1
 43
0.010918125
 38
0.34938
 10
0.5140436829122237
 20
0.1997992443440588
 42
0.2285268323977459
 10
0.5153187380010032
 20
0.0758670897235656
 42
0.6230043105321781
 10
0.646630091729346
 20
0.0762813869185668
 42
0.2290062495557326
 10
0.6470105418576893
 20
0.2003399191313444
 42
0.6323121992740218
  0
SOLID
  5
F0A
330
EDB
100
AcDbEntity
  8
0
100
AcDbTrace
 10
0.6847036127368398
 20
0.2273112667781008
 30
0.34938
 11
0.6441112025638987
 21
0.2081511505259352
 31
0.34938
 12
0.6303251009957336
 22
0.2702299271829527
 32
0.34938
 13
0.6165389994275686
 23
0.2311432900285344
 33
0.34938
  0
SOLID
  5
F0B
330
EDB
100
AcDbEntity
  8
0
100
AcDbTrace
 10
0.6525360424111142
 20
0.0257468438053139
 30
0.34938
 11
0.6333886791219925
 21
0.0518046019082594
 31
0.34938
 12
0.6908307689893541
 22
0.0686655042101658
 32
0.34938
 13
0.658663198663632
 23
0.1023873088139786
 33
0.34938
  0
SOLID
  5
F0C
330
EDB
100
AcDbEntity
  8
0
100
AcDbTrace
 10
0.6303251009957336
 20
0.2702299271829527
 30
0.34938
 11
0.6165389994275686
 21
0.2311432900285344
 31
0.34938
 12
0.58030244033597
 22
0.2808592629481539
 32
0.34938
 13
0.5791494209320867
 23
0.2416304925677202
 33
0.34938
  0
SOLID
  5
F0D
330
EDB
100
AcDbEntity
  8
0
100
AcDbTrace
 10
0.4707655969670839
 20
0.213939595828589
 30
0.34938
 11
0.5099682566991071
 21
0.1862486990894579
 31
0.34938
 12
0.4549352532673972
 22
0.1384083273680505
 32
0.34938
 13
0.4993571360981548
 23
0.1345763041176169
 33
0.34938
  0
SOLID
  5
F0E
330
EDB
100
AcDbEntity
  8
0
100
AcDbTrace
 10
0.5076622178913404
 20
0.2554759409372838
 30
0.34938
 11
0.5284165671612336
 21
0.2243236821057644
 31
0.34938
 12
0.4707655969670839
 22
0.213939595828589
 32
0.34938
 13
0.5099682566991071
 23
0.1862486990894579
 33
0.34938
  0
SOLID
  5
F0F
330
EDB
100
AcDbEntity
  8
0
100
AcDbTrace
 10
0.4748485110880801
 20
0.0602350530592126
 30
0.34938
 11
0.5139091321978846
 21
0.0747967414108586
 31
0.34938
 12
0.5322906009554416
 22
0.0104187508035807
 32
0.34938
 13
0.5522038587761245
 23
0.0387757228567867
 33
0.34938
  0
SOLID
  5
F10
330
EDB
100
AcDbEntity
  8
0
100
AcDbTrace
 10
0.3969004331716075
 20
0.2753210836003279
 30
0.34938
 11
0.4514910581716052
 21
0.2753210836003279
 31
0.34938
 12
0.3969004331716075
 22
0.0023679586003289
 32
0.34938
 13
0.4514910581716052
 23
0.0023679586003289
 33
0.34938
  0
SOLID
  5
F11
330
EDB
100
AcDbEntity
  8
0
100
AcDbTrace
 10
0.4549352532673972
 20
0.1384083273680505
 30
0.34938
 11
0.4993571360981548
 21
0.1345763041176169
 31
0.34938
 12
0.4748485110880801
 22
0.0602350530592126
 32
0.34938
 13
0.5139091321978846
 23
0.0747967414108586
 33
0.34938
  0
LWPOLYLINE
  5
F12
330
EDB
100
AcDbEntity
  8
0
100
AcDbPolyline
 90
        2
 70
     0
 43
0.010918125
 38
0.34938
 10
0.4634643884302854
 20
0.1900051802242113
 42
0.1430540650207981
 10
0.4630093563372686
 20
0.0925980808906943
 42
0.1430540650207981
  0
SOLID
  5
F16
330
EDB
100
AcDbEntity
  8
0
100
AcDbTrace
 10
0.5322906009554416
 20
0.0104187508035807
 30
0.34938
 11
0.5522038587761245
 21
0.0387757228567867
 31
0.34938
 12
0.5813078509755876
 22
0.0012218950025402
 32
0.34938
 13
0.5813078509755876
 23
0.0357101042564403
 33
0.34938
  0
SOLID
  5
F17
330
EDB
100
AcDbEntity
  8
0
100
AcDbTrace
 10
0.58030244033597
 20
0.2808592629481539
 30
0.34938
 11
0.5791494209320867
 21
0.2416304925677202
 31
0.34938
 12
0.5076622178913404
 22
0.2554759409372838
 32
0.34938
 13
0.5284165671612336
 23
0.2243236821057644
 33
0.34938
  0
SOLID
  5
F18
330
EDB
100
AcDbEntity
  8
0
100
AcDbTrace
 10
0.8760742265482655
 20
0.0099578020131754
 30
0.34938
 11
0.9267049776546052
 21
0.0152794808020995
 31
0.34938
 12
0.8741249142547822
 22
0.016303343840614
 32
0.34938
 13
0.9277587226431727
 23
0.0204545410061345
 33
0.34938
  0
SOLID
  5
F19
330
EDB
100
AcDbEntity
  8
0
100
AcDbTrace
 10
0.8786524030512232
 20
0.0023679586003289
 30
0.34938
 11
0.934927625990845
 21
0.0023679586003289
 31
0.34938
 12
0.8760742265482655
 22
0.0099578020131754
 32
0.34938
 13
0.9267049776546052
 23
0.0152794808020995
 33
0.34938
  0
SOLID
  5
F1A
330
EDB
100
AcDbEntity
  8
0
100
AcDbTrace
 10
0.878498730795
 20
0.216932532206652
 30
0.34938
 11
0.920882769084919
 21
0.2389869115003775
 31
0.34938
 12
0.859849753947433
 22
0.2367249238805074
 32
0.34938
 13
0.8790638513055313
 23
0.2678272536537096
 33
0.34938
  0
SOLID
  5
F1B
330
EDB
100
AcDbEntity
  8
0
100
AcDbTrace
 10
0.8841499359003215
 20
0.1943126560079596
 30
0.34938
 11
0.9265339741902423
 21
0.1807407302887438
 31
0.34938
 12
0.878498730795
 22
0.216932532206652
 32
0.34938
 13
0.920882769084919
 23
0.2389869115003775
 33
0.34938
  0
SOLID
  5
F1C
330
EDB
100
AcDbEntity
  8
0
100
AcDbTrace
 10
0.8651255293429596
 20
0.1516364236710292
 30
0.34938
 11
0.8859855895866282
 21
0.1419112609889264
 31
0.34938
 12
0.8841499359003215
 22
0.1943126560079596
 32
0.34938
 13
0.9265339741902423
 23
0.1807407302887438
 33
0.34938
  0
SOLID
  5
F1D
330
EDB
100
AcDbEntity
  8
0
100
AcDbTrace
 10
0.8710059815654496
 20
0.0817752041156479
 30
0.34938
 11
0.915288610845014
 21
0.0972844473074015
 31
0.34938
 12
0.8584592366029042
 22
0.0987615180875685
 32
0.34938
 13
0.8879809894559471
 23
0.1194405090099053
 33
0.34938
  0
SOLID
  5
F1E
330
EDB
100
AcDbEntity
  8
0
100
AcDbTrace
 10
0.8699117224827173
 20
0.0654814455511095
 30
0.34938
 11
0.9217755527314395
 21
0.0811785461046175
 31
0.34938
 12
0.8710059815654496
 22
0.0817752041156479
 32
0.34938
 13
0.915288610845014
 23
0.0972844473074015
 33
0.34938
  0
SOLID
  5
F1F
330
EDB
100
AcDbEntity
  8
0
100
AcDbTrace
 10
0.8699117224827173
 20
0.0654814455511095
 30
0.34938
 11
0.8741249142547822
 21
0.016303343840614
 31
0.34938
 12
0.9217755527314395
 22
0.0811785461046175
 32
0.34938
 13
0.9277587226431727
 23
0.0204545410061345
 33
0.34938
  0
LWPOLYLINE
  5
F20
330
EDB
100
AcDbEntity
  8
0
100
AcDbPolyline
 90
        2
 70
     0
 43
0.010918125
 38
0.34938
 10
0.9163427978614429
 20
0.0806432537532116
 42
0.3581345567762107
 10
0.8698970913896921
 20
0.1270312415146706
 42
0.3581345567762107
  0
LWPOLYLINE
  5
F24
330
EDB
100
AcDbEntity
  8
0
100
AcDbPolyline
 90
        2
 70
     0
 43
0.010918125
 38
0.34938
 10
0.8697514590815629
 20
0.137881932030862
 42
0.9399343180161681
 10
0.8615706858690082
 20
0.2698620211003271
 42
0.9399343180161681
  0
SOLID
  5
F28
330
EDB
100
AcDbEntity
  8
0
100
AcDbTrace
 10
0.8651255293429596
 20
0.1516364236710292
 30
0.34938
 11
0.8859855895866282
 21
0.1419112609889264
 31
0.34938
 12
0.8364237107255156
 22
0.1526009719217236
 32
0.34938
 13
0.8704256277739794
 23
0.1324646578128559
 33
0.34938
  0
SOLID
  5
F29
330
EDB
100
AcDbEntity
  8
0
100
AcDbTrace
 10
0.859849753947433
 20
0.2367249238805074
 30
0.34938
 11
0.8790638513055313
 21
0.2678272536537096
 31
0.34938
 12
0.8364237107255156
 22
0.2337091722048226
 32
0.34938
 13
0.8615706858690082
 23
0.2753210836003279
 33
0.34938
  0
SOLID
  5
F2A
330
EDB
100
AcDbEntity
  8
0
100
AcDbTrace
 10
0.843647945507735
 20
0.1135024546871084
 30
0.34938
 11
0.8704256277739794
 21
0.1324646578128559
 31
0.34938
 12
0.8198314885494308
 22
0.1114546513469983
 32
0.34938
 13
0.8364237107255156
 23
0.1526009719217236
 33
0.34938
  0
SOLID
  5
F2B
330
EDB
100
AcDbEntity
  8
0
100
AcDbTrace
 10
0.8584592366029042
 20
0.0987615180875685
 30
0.34938
 11
0.8879809894559471
 21
0.1194405090099053
 31
0.34938
 12
0.843647945507735
 22
0.1135024546871084
 32
0.34938
 13
0.8704256277739794
 23
0.1324646578128559
 33
0.34938
  0
SOLID
  5
F2C
330
EDB
100
AcDbEntity
  8
0
100
AcDbTrace
 10
0.7666672735097926
 20
0.1526009719217236
 30
0.34938
 11
0.7666672735097926
 21
0.1114546513469983
 31
0.34938
 12
0.8364237107255156
 22
0.1526009719217236
 32
0.34938
 13
0.8198314885494308
 23
0.1114546513469983
 33
0.34938
  0
SOLID
  5
F2D
330
EDB
100
AcDbEntity
  8
0
100
AcDbTrace
 10
0.7666672735097926
 20
0.2337091722048226
 30
0.34938
 11
0.7666672735097926
 21
0.2693740661060553
 31
0.34938
 12
0.8364237107255156
 22
0.2337091722048226
 32
0.34938
 13
0.8615706858690082
 23
0.2753210836003279
 33
0.34938
  0
LWPOLYLINE
  5
F2E
330
EDB
100
AcDbEntity
  8
0
100
AcDbPolyline
 90
        2
 70
     0
 43
0.010918125
 38
0.34938
 10
0.8364237107255156
 20
0.1471419094217228
 42
1.0
 10
0.8364237107255156
 20
0.2391682347048234
 42
1.0
  0
SOLID
  5
F32
330
EDB
100
AcDbEntity
  8
0
100
AcDbTrace
 10
0.7076804486837816
 20
0.1499043971193488
 30
0.34938
 11
0.6601949877267615
 21
0.1545028250198697
 31
0.34938
 12
0.6847036127368398
 22
0.2273112667781008
 32
0.34938
 13
0.6441112025638987
 23
0.2081511505259352
 33
0.34938
  0
LWPOLYLINE
  5
F33
330
EDB
100
AcDbEntity
  8
0
100
AcDbPolyline
 90
        2
 70
     0
 43
0.010918125
 38
0.34938
 10
0.8615706858690082
 20
0.2698620211003271
 10
0.7109070694803368
 20
0.2698620211003271
  0
LWPOLYLINE
  5
F37
330
EDB
100
AcDbEntity
  8
0
100
AcDbPolyline
 90
        2
 70
     0
 43
0.010918125
 38
0.34938
 10
0.8795640523979031
 20
0.0167693262855377
 42
0.1148360225250129
 10
0.8833267994785245
 20
0.0051877779951419
 42
0.1148360225250129
  0
SOLID
  5
F3B
330
EDB
100
AcDbEntity
  8
0
100
AcDbTrace
 10
0.6908307689893541
 20
0.0686655042101658
 30
0.34938
 11
0.658663198663632
 21
0.1023873088139786
 31
0.34938
 12
0.7076804486837816
 22
0.1499043971193488
 32
0.34938
 13
0.6601949877267615
 23
0.1545028250198697
 33
0.34938
  0
LWPOLYLINE
  5
F3C
330
EDB
100
AcDbEntity
  8
0
100
AcDbPolyline
 90
        2
 70
     0
 43
0.010918125
 38
0.34938
 10
0.7003338419637988
 20
0.0950970736731694
 42
0.1406948172011772
 10
0.6983012465547152
 20
0.1913916908167814
 42
0.1406948172011772
  0
LWPOLYLINE
  5
F40
330
EDB
100
AcDbEntity
  8
0
100
AcDbPolyline
 90
        2
 70
     0
 43
0.010918125
 38
0.34938
 10
0.8753508606258328
 20
0.0659474279960306
 42
0.3893977487990803
 10
0.8198314885494308
 20
0.1169137138469991
 42
0.3893977487990803
  0
SOLID
  5
F44
330
EDB
100
AcDbEntity
  8
0
100
AcDbTrace
 10
0.7109070694803368
 20
0.0023679586003289
 30
0.34938
 11
0.7109070694803368
 21
0.2753210836003279
 31
0.34938
 12
0.7666672735097926
 22
0.0023679586003289
 32
0.34938
 13
0.7666672735097926
 23
0.2693740661060553
 33
0.34938
  0
LWPOLYLINE
  5
F45
330
EDB
100
AcDbEntity
  8
0
100
AcDbPolyline
 90
        2
 70
     0
 43
0.010918125
 38
0.34938
 10
0.9223259677731796
 20
0.0199192486547273
 42
0.0950669764493849
 10
0.9266860344800491
 20
0.0051890093990461
 42
0.1404915454274296
  0
LINE
  5
F49
330
EDB
100
AcDbEntity
  8
0
100
AcDbLine
 10
0.9332533237966114
 20
0.2753210836003279
 30
0.34938
 11
0.9332533237966114
 21
0.0023679586003289
 31
0.34938
  0
LWPOLYLINE
  5
F4A
330
EDB
100
AcDbEntity
  8
0
100
AcDbPolyline
 90
        4
 70
     0
 43
0.0
 38
0.34938
 10
1.124416044890361
 20
0.048769989850328
 10
1.204841683171611
 20
0.2753210836003279
 10
1.266256136296608
 20
0.2753210836003279
 10
1.356301317748224
 20
0.0216726851450777
  0
LWPOLYLINE
  5
F50
330
EDB
100
AcDbEntity
  8
0
100
AcDbPolyline
 90
        4
 70
     0
 43
0.0
 38
0.34938
 10
1.287755678182184
 20
0.0610528804753279
 10
1.183342141286034
 20
0.0610528804753279
 10
1.165263480046611
 20
0.0023679586003289
 10
1.107943323796611
 20
0.0023679586003289
  0
LINE
  5
F56
330
EDB
100
AcDbEntity
  8
0
100
AcDbLine
 10
1.195955160755403
 20
0.1019958492253274
 30
0.34938
 11
1.27514265871282
 21
0.1019958492253274
 31
0.34938
  0
LINE
  5
F57
330
EDB
100
AcDbEntity
  8
0
100
AcDbLine
 10
1.27514265871282
 20
0.1019958492253274
 30
0.34938
 11
1.235548909734113
 21
0.2305206351473488
 31
0.34938
  0
LINE
  5
F58
330
EDB
100
AcDbEntity
  8
0
100
AcDbLine
 10
1.235548909734113
 20
0.2305206351473488
 30
0.34938
 11
1.195955160755403
 21
0.1019958492253274
 31
0.34938
  0
LINE
  5
F59
330
EDB
100
AcDbEntity
  8
0
100
AcDbLine
 10
1.124416044890361
 20
0.048769989850328
 30
0.34938
 11
0.9905734800466134
 21
0.048769989850328
 31
0.34938
  0
LINE
  5
F5A
330
EDB
100
AcDbEntity
  8
0
100
AcDbLine
 10
0.9905734800466134
 20
0.048769989850328
 30
0.34938
 11
0.9905734800466134
 21
0.2753210836003279
 31
0.34938
  0
ARC
  5
F5B
330
EDB
100
AcDbEntity
  8
0
100
AcDbCircle
 10
1.479130223998222
 20
0.2493905367253339
 30
0.34938
 40
0.1112320638963407
100
AcDbArc
 50
295.3783953421117
 51
313.157562911559
  0
ARC
  5
F5C
330
EDB
100
AcDbEntity
  8
0
100
AcDbCircle
 10
1.488850655351022
 20
0.0585567498598709
 30
0.34938
 40
0.097984775187765
100
AcDbArc
 50
41.8214311105379
 51
67.21116987831337
  0
ARC
  5
F5D
330
EDB
100
AcDbEntity
  8
0
100
AcDbCircle
 10
1.483825582321294
 20
0.1630760249859393
 30
0.34938
 40
0.1122450586143883
100
AcDbArc
 50
58.67020583628413
 51
90.00000000000101
  0
ARC
  5
F5E
330
EDB
100
AcDbEntity
  8
0
100
AcDbCircle
 10
1.488683583373234
 20
0.1180860046543759
 30
0.34938
 40
0.115718046054048
100
AcDbArc
 50
269.9999999999952
 51
297.4526478761186
  0
LINE
  5
F5F
330
EDB
100
AcDbEntity
  8
0
100
AcDbLine
 10
1.479912122488208
 20
0.2343781148503283
 30
0.34938
 11
1.410891942748225
 21
0.2343781148503283
 31
0.34938
  0
LINE
  5
F60
330
EDB
100
AcDbEntity
  8
0
100
AcDbLine
 10
1.410891942748225
 20
0.2343781148503283
 30
0.34938
 11
1.410891942748225
 21
0.1661398336003272
 31
0.34938
  0
LINE
  5
F61
330
EDB
100
AcDbEntity
  8
0
100
AcDbLine
 10
1.410891942748225
 20
0.1661398336003272
 30
0.34938
 11
1.47991212536424
 21
0.1661398336003272
 31
0.34938
  0
ARC
  5
F62
330
EDB
100
AcDbEntity
  8
0
100
AcDbCircle
 10
1.47991212536424
 20
0.2002589742253278
 30
0.34938
 40
0.034119140625
100
AcDbArc
 50
270.0
 51
90.00000482967505
  0
LINE
  5
F63
330
EDB
100
AcDbEntity
  8
0
100
AcDbLine
 10
1.483438830222384
 20
0.1238320992253281
 30
0.34938
 11
1.410891942748225
 21
0.1238320992253281
 31
0.34938
  0
LINE
  5
F64
330
EDB
100
AcDbEntity
  8
0
100
AcDbLine
 10
1.483825582321291
 20
0.2753210836003279
 30
0.34938
 11
1.356301317748224
 21
0.2753210836003279
 31
0.34938
  0
LINE
  5
F65
330
EDB
100
AcDbEntity
  8
0
100
AcDbLine
 10
1.410891942748225
 20
0.044675692975328
 30
0.34938
 11
1.476400692748221
 21
0.044675692975328
 31
0.34938
  0
ARC
  5
F66
330
EDB
100
AcDbEntity
  8
0
100
AcDbCircle
 10
1.476400692748221
 20
0.093135819213479
 30
0.34938
 40
0.0484601262381522
100
AcDbArc
 50
270.0
 51
313.2275081247473
  0
LWPOLYLINE
  5
F67
330
EDB
100
AcDbEntity
  8
0
100
AcDbPolyline
 90
        3
 70
     0
 43
0.0
 38
0.34938
 10
1.363154495671611
 20
0.0023679586003289
 10
1.305834339421615
 20
0.0023679586003276
 10
1.287755678182184
 20
0.0610528804753279
  0
LINE
  5
F6C
330
EDB
100
AcDbEntity
  8
0
100
AcDbLine
 10
1.356301317748224
 20
0.0023679586003289
 30
0.34938
 11
1.488683583373223
 21
0.0023679586003289
 31
0.34938
  0
LINE
  5
F6D
330
EDB
100
AcDbEntity
  8
0
100
AcDbLine
 10
1.356301317748224
 20
0.2753210836003279
 30
0.34938
 11
1.356301317748224
 21
0.0216726851450804
 31
0.34938
  0
LINE
  5
F6E
330
EDB
100
AcDbEntity
  8
0
100
AcDbLine
 10
1.410891942748225
 20
0.1238320992253281
 30
0.34938
 11
1.410891942748225
 21
0.044675692975328
 31
0.34938
  0
ARC
  5
F6F
330
EDB
100
AcDbEntity
  8
0
100
AcDbCircle
 10
1.483438830222384
 20
0.085648171261072
 30
0.34938
 40
0.0381839279642565
100
AcDbArc
 50
313.2275081247476
 51
90.0
  0
ARC
  5
F70
330
EDB
100
AcDbEntity
  8
0
100
AcDbCircle
 10
1.509848954292332
 20
0.0773455338264282
 30
0.34938
 40
0.0698077107315333
100
AcDbArc
 50
5.797666812800194
 51
41.82143111053831
  0
ARC
  5
F71
330
EDB
100
AcDbEntity
  8
0
100
AcDbCircle
 10
1.51024443248119
 20
0.2064765433833915
 30
0.34938
 40
0.0614359979958454
100
AcDbArc
 50
358.6532608214001
 51
58.67020583628288
  0
ARC
  5
F72
330
EDB
100
AcDbEntity
  8
0
100
AcDbCircle
 10
1.519575057953524
 20
0.2062571863265554
 30
0.34938
 40
0.0521027944074
100
AcDbArc
 50
313.1575629115595
 51
358.653260821401
  0
ARC
  5
F73
330
EDB
100
AcDbEntity
  8
0
100
AcDbCircle
 10
1.509848954292332
 20
0.0773455338264282
 30
0.34938
 40
0.0698077107315333
100
AcDbArc
 50
297.4526478761237
 51
341.3323115150402
  0
LWPOLYLINE
  5
F74
330
EDB
100
AcDbEntity
  8
0
100
AcDbPolyline
 90
        6
 70
     0
 43
0.005135886
 38
0.34938
 10
1.875604469201887
 20
0.2584799218284721
 42
0.3426274439635524
 10
1.850841554462519
 20
0.2321473747852898
 42
0.2942809489964497
 10
1.868487315383209
 20
0.1980784590160529
 42
0.2735375373643303
 10
1.932709290355532
 20
0.1989466727774789
 42
0.208169861593478
 10
1.949032169149893
 20
0.2221629906853679
 42
0.4189849082168211
 10
1.923866394966449
 20
0.2596498996557961
 42
0.4189849082168211
  0
SOLID
  5
F7C
330
EDB
100
AcDbEntity
  8
0
100
AcDbTrace
 10
1.836454414497891
 20
0.0724730754240572
 30
0.34938
 11
1.964848766952641
 21
0.1533139640066774
 31
0.34938
 12
1.836463982570752
 22
0.0467428670899106
 32
0.34938
 13
1.964851564497887
 23
0.1263998784240567
 33
0.34938
  0
SOLID
  5
F7D
330
EDB
100
AcDbEntity
  8
0
100
AcDbTrace
 10
1.836454414497891
 20
0.1540052656740571
 30
0.34938
 11
1.964851564497887
 21
0.1540052656740571
 31
0.34938
 12
1.836454414497891
 22
0.1270418641740574
 32
0.34938
 13
1.964851564497887
 23
0.1270418641740574
 33
0.34938
  0
SOLID
  5
F7E
330
EDB
100
AcDbEntity
  8
0
100
AcDbTrace
 10
1.964851564497887
 20
0.0448676881740569
 30
0.34938
 11
1.836454414497891
 21
0.0448676881740569
 31
0.34938
 12
1.964851564497887
 22
0.0718310896740566
 32
0.34938
 13
1.836454414497891
 23
0.0718310896740566
 33
0.34938
  0
SOLID
  5
F7F
330
EDB
100
AcDbEntity
  8
0
100
AcDbTrace
 10
1.836454422551518
 20
-0.0045652133514511
 30
0.34938
 11
1.836454422551518
 21
0.0223981881485487
 31
0.34938
 12
1.964851572551516
 22
-0.0045652133514511
 32
0.34938
 13
1.964851572551516
 23
0.0223981881485487
 33
0.34938
  0
SOLID
  5
F80
330
EDB
100
AcDbEntity
  8
0
100
AcDbTrace
 10
1.878118729821983
 20
0.1922021012655084
 30
0.34938
 11
1.86494111617041
 21
0.1764465216795306
 31
0.34938
 12
1.904473957125109
 22
0.1900856801270936
 32
0.34938
 13
1.905885844302062
 23
0.1682159950301405
 33
0.34938
  0
LWPOLYLINE
  5
F81
330
EDB
100
AcDbEntity
  8
0
100
AcDbPolyline
 90
        2
 70
     0
 43
0.005135886
 38
0.34938
 10
1.872741449783834
 20
0.1741509664131393
 42
0.2706611322925477
 10
1.945661635105341
 20
0.1855145211996017
 42
0.2706611322925477
  0
LWPOLYLINE
  5
F85
330
EDB
100
AcDbEntity
  8
0
100
AcDbPolyline
 90
        2
 70
     0
 43
0.005135886
 38
0.34938
 10
1.8755288977542
 20
0.2784067942650519
 42
0.2841209316902218
 10
1.838436999740206
 20
0.2473790826851618
 42
0.2888447634665965
  0
SOLID
  5
F89
330
EDB
100
AcDbEntity
  8
0
100
AcDbTrace
 10
1.85364601875478
 20
0.2117202073197775
 30
0.34938
 11
1.838115259808294
 21
0.205370943904533
 31
0.34938
 12
1.878118729821983
 22
0.1922021012655084
 32
0.34938
 13
1.86494111617041
 23
0.1764465216795306
 33
0.34938
  0
SOLID
  5
F8A
330
EDB
100
AcDbEntity
  8
0
100
AcDbTrace
 10
1.851057558930374
 20
0.2389985242149009
 30
0.34938
 11
1.836232743572361
 21
0.2451126297258761
 31
0.34938
 12
1.85364601875478
 22
0.2117202073197775
 32
0.34938
 13
1.838115259808294
 23
0.205370943904533
 33
0.34938
  0
SOLID
  5
F8B
330
EDB
100
AcDbEntity
  8
0
100
AcDbTrace
 10
1.867058946935841
 20
0.2561650512264859
 30
0.34938
 11
1.854116647813771
 21
0.2702745254825847
 31
0.34938
 12
1.851057558930374
 22
0.2389985242149009
 32
0.34938
 13
1.836232743572361
 23
0.2451126297258761
 33
0.34938
  0
LWPOLYLINE
  5
F8C
330
EDB
100
AcDbEntity
  8
0
100
AcDbPolyline
 90
        2
 70
     0
 43
0.005135886
 38
0.34938
 10
1.838436999740206
 20
0.2473790826851618
 42
0.3986208060685013
 10
1.872741449783834
 20
0.1741509664131393
 42
0.3986208060685013
  0
SOLID
  5
F90
330
EDB
100
AcDbEntity
  8
0
100
AcDbTrace
 10
1.87247877190544
 20
0.2575532414355526
 30
0.34938
 11
1.870808797825169
 21
0.2797794562583307
 31
0.34938
 12
1.87600325393792
 22
0.2559431321277752
 32
0.34938
 13
1.87600325393792
 23
0.2810620028868871
 33
0.34938
  0
SOLID
  5
F91
330
EDB
100
AcDbEntity
  8
0
100
AcDbTrace
 10
1.867058946935841
 20
0.2561650512264859
 30
0.34938
 11
1.854116647813771
 21
0.2702745254825847
 31
0.34938
 12
1.87247877190544
 22
0.2575532414355526
 32
0.34938
 13
1.870808797825169
 23
0.2797794562583307
 33
0.34938
  0
SOLID
  5
F92
330
EDB
100
AcDbEntity
  8
0
100
AcDbTrace
 10
1.926919129339019
 20
0.2579894763883987
 30
0.34938
 11
1.929649586465419
 21
0.2815684263365026
 31
0.34938
 12
1.92339138483954
 22
0.2571262719830627
 32
0.34938
 13
1.92339138483954
 23
0.2830968592554597
 33
0.34938
  0
LWPOLYLINE
  5
F93
330
EDB
100
AcDbEntity
  8
0
100
AcDbPolyline
 90
        2
 70
     0
 43
0.005135886
 38
0.34938
 10
1.960118205018853
 20
0.2537678273452397
 42
0.2619660936757589
 10
1.923746088964545
 20
0.2804715870934902
 42
0.2656465770789468
  0
SOLID
  5
F97
330
EDB
100
AcDbEntity
  8
0
100
AcDbTrace
 10
1.943042767588014
 20
0.2484920763823766
 30
0.34938
 11
1.958901828257101
 21
0.2591443501587882
 31
0.34938
 12
1.926919129339019
 22
0.2579894763883987
 32
0.34938
 13
1.929649586465419
 23
0.2815684263365026
 33
0.34938
  0
SOLID
  5
F98
330
EDB
100
AcDbEntity
  8
0
100
AcDbTrace
 10
1.949802367217465
 20
0.2261482826074639
 30
0.34938
 11
1.96644138168995
 21
0.2178343128307527
 31
0.34938
 12
1.943042767588014
 22
0.2484920763823766
 32
0.34938
 13
1.958901828257101
 23
0.2591443501587882
 33
0.34938
  0
SOLID
  5
F99
330
EDB
100
AcDbEntity
  8
0
100
AcDbTrace
 10
1.938623029368764
 20
0.2009465617218074
 30
0.34938
 11
1.948242459610669
 21
0.1850980568349514
 31
0.34938
 12
1.949802367217465
 22
0.2261482826074639
 32
0.34938
 13
1.96644138168995
 23
0.2178343128307527
 33
0.34938
  0
SOLID
  5
F9A
330
EDB
100
AcDbEntity
  8
0
100
AcDbTrace
 10
1.904473957125109
 20
0.1900856801270936
 30
0.34938
 11
1.905885844302062
 21
0.1682159950301405
 31
0.34938
 12
1.938623029368764
 22
0.2009465617218074
 32
0.34938
 13
1.948242459610669
 23
0.1850980568349514
 33
0.34938
  0
LWPOLYLINE
  5
F9B
330
EDB
100
AcDbEntity
  8
0
100
AcDbPolyline
 90
        2
 70
     0
 43
0.005135886
 38
0.34938
 10
1.964592299843333
 20
0.2175809996119917
 42
0.1521907920671271
 10
1.960118205018853
 20
0.2537678273452397
 42
0.1521907920671271
  0
LWPOLYLINE
  5
F9F
330
EDB
100
AcDbEntity
  8
0
100
AcDbPolyline
 90
        2
 70
     0
 43
0.005135886
 38
0.34938
 10
1.945661635105341
 20
0.1855145211996017
 42
0.1790006504245718
 10
1.964592299843333
 20
0.2175809996119917
 42
0.1790006504245718
  0
ENDBLK
  5
FA4
330
EDB
100
AcDbEntity
  8
0
100
AcDbBlockEnd
  0
BLOCK
  5
11B1
330
11B0
100
AcDbEntity
  8
0
100
AcDbBlockBegin
  2
TOGGLE-TOP
 70
     0
 10
0.0
 20
0.0
 30
0.0
  3
TOGGLE-TOP
  1

  0
CIRCLE
  5
11B2
330
11B0
100
AcDbEntity
  8
0
100
AcDbCircle
 10
0.0
 20
0.0
 30
0.0
 40
0.1198515663920118
  0
LINE
  5
11B3
330
11B0
100
AcDbEntity
  8
0
100
AcDbLine
 10
-0.0775000000000006
 20
0.134233937586588
 30
0.0
 11
-0.1550000000000002
 21
0.0
 31
0.0
  0
LINE
  5
11B4
330
11B0
100
AcDbEntity
  8
0
100
AcDbLine
 10
0.1550000000000002
 20
0.0
 30
0.0
 11
0.0775000000000006
 21
0.134233937586588
 31
0.0
  0
LINE
  5
11B5
330
11B0
100
AcDbEntity
  8
0
100
AcDbLine
 10
-0.0774999999999997
 20
-0.1342339375865844
 30
0.0
 11
0.0775000000000006
 21
-0.134233937586588
 31
0.0
  0
ARC
  5
11B6
330
11B0
100
AcDbEntity
  8
0
100
AcDbCircle
 10
0.0
 20
0.0
 30
0.0
 40
0.092
100
AcDbArc
 50
297.8254366769886
 51
242.1745633230113
  0
ARC
  5
11B7
330
11B0
100
AcDbEntity
  8
0
100
AcDbCircle
 10
0.0
 20
0.0
 30
0.0
 40
0.0625
100
AcDbArc
 50
318.7552365981171
 51
221.2447634018828
  0
ARC
  5
11B8
330
11B0
100
AcDbEntity
  8
0
100
AcDbCircle
 10
0.0
 20
-0.0577649574895833
 30
0.0
 40
0.049
100
AcDbArc
 50
171.036582901439
 51
8.963417098560743
  0
ARC
  5
11B9
330
11B0
100
AcDbEntity
  8
0
100
AcDbCircle
 10
0.0
 20
0.0
 30
0.0
 40
0.04
100
AcDbArc
 50
8.963417098561196
 51
171.0365829014388
  0
LINE
  5
11BA
330
11B0
100
AcDbEntity
  8
0
100
AcDbLine
 10
-0.1550000000000002
 20
0.0
 30
0.0
 11
-0.0774999999999997
 21
-0.1342339375865844
 31
0.0
  0
LINE
  5
11BB
330
11B0
100
AcDbEntity
  8
0
100
AcDbLine
 10
-0.0484016130500127
 20
-0.0501305711909428
 30
0.0
 11
-0.039511520857153
 21
0.0062321520805231
 31
0.0
  0
LINE
  5
11BC
330
11B0
100
AcDbEntity
  8
0
100
AcDbLine
 10
0.0775000000000006
 20
-0.134233937586588
 30
0.0
 11
0.1550000000000002
 21
0.0
 31
0.0
  0
LINE
  5
11BD
330
11B0
100
AcDbEntity
  8
0
100
AcDbLine
 10
0.039511520857153
 20
0.0062321520805231
 30
0.0
 11
0.0484016130500127
 21
-0.0501305711909428
 31
0.0
  0
LINE
  5
11BE
330
11B0
100
AcDbEntity
  8
0
100
AcDbLine
 10
0.0775000000000006
 20
0.134233937586588
 30
0.0
 11
-0.0775000000000006
 21
0.134233937586588
 31
0.0
  0
ENDBLK
  5
11BF
330
11B0
100
AcDbEntity
  8
0
100
AcDbBlockEnd
  0
BLOCK
  5
1BDF
330
18C7
100
AcDbEntity
  8
0
100
AcDbBlockBegin
  2
JUNK
 70
     0
 10
0.0
 20
0.0
 30
0.0
  3
JUNK
  1

  0
CIRCLE
  5
1BF1
330
18C7
100
AcDbEntity
  8
0
100
AcDbCircle
 39
0.18
 10
0.0
 20
-0.4097717343620087
 30
0.0
 40
0.156
  0
INSERT
  5
1BF2
330
18C7
100
AcDbEntity
  8
BODY
100
AcDbBlockReference
  2
TOGGLE-TOP
 10
0.3789999999999996
 20
0.0039999999999996
 30
0.0
  0
CIRCLE
  5
1BF3
330
18C7
100
AcDbEntity
  8
0
100
AcDbCircle
 10
0.0
 20
0.0
 30
0.0
 40
0.7450000000000001
  0
INSERT
  5
1BF4
330
18C7
100
AcDbEntity
  8
BODY
100
AcDbBlockReference
  2
BNC
 10
-0.2950000000000017
 20
0.0
 30
0.0
  0
ARC
  5
1BF5
330
18C7
100
AcDbEntity
  8
0
100
AcDbCircle
 10
-0.2950000000000017
 20
0.0
 30
0.0
 40
0.21875
100
AcDbArc
 50
122.2514533703048
 51
57.7485466296953
  0
INSERT
  5
1BF6
330
18C7
100
AcDbEntity
  8
SILK-SCREEN
100
AcDbBlockReference
  2
CE-MARK
 10
-0.3778305423482688
 20
-0.4013992273568743
 30
0.0
 41
0.5
 42
0.5
 43
0.5
  0
CIRCLE
  5
1BF7
330
18C7
100
AcDbEntity
  8
0
100
AcDbCircle
 10
-0.5862991983620667
 20
-0.3384999999999998
 30
0.0
 40
0.048
  0
LWPOLYLINE
  5
1BF8
330
18C7
100
AcDbEntity
  8
BODY
100
AcDbPolyline
 90
        2
 70
     1
 43
0.1325
 10
-0.1537499999999996
 20
-0.4097717343620069
 42
1.0
 10
0.1537499999999996
 20
-0.4097717343620069
 42
1.0
  0
TEXT
  5
1BFC
330
18C7
100
AcDbEntity
  8
SILK-SCREEN
100
AcDbText
 10
-0.482353289200006
 20
0.3025188461910986
 30
0.0
 40
0.075
  1
PDA55
  7
HL-HD
100
AcDbText
  0
CIRCLE
  5
1BFD
330
18C7
100
AcDbEntity
  8
0
100
AcDbCircle
 10
0.0499999999999998
 20
0.3800000000000008
 30
0.0
 40
0.08
  0
LINE
  5
1BFE
330
18C7
100
AcDbEntity
  8
0
100
AcDbLine
 10
-0.4117328681220549
 20
0.1850000000000005
 30
0.0
 11
-0.1782671318779485
 21
0.1850000000000005
 31
0.0
  0
TEXT
  5
1BFF
330
18C7
100
AcDbEntity
  8
SILK-SCREEN
100
AcDbText
 10
-0.0393644200116317
 20
0.2204922011300514
 30
0.0
 40
0.05
  1
GAIN
  7
HL-HD
100
AcDbText
  0
CIRCLE
  5
1C00
330
18C7
100
AcDbEntity
  8
0
100
AcDbCircle
 10
0.0
 20
0.6770000000000014
 30
0.0
 40
0.048
  0
CIRCLE
  5
1C01
330
18C7
100
AcDbEntity
  8
0
100
AcDbCircle
 10
0.5862991983620641
 20
-0.3385000000000051
 30
0.0
 40
0.048
  0
TEXT
  5
1C02
330
18C7
100
AcDbEntity
  8
SILK-SCREEN
100
AcDbText
 10
0.2850806511121764
 20
-0.2785631396912169
 30
0.0
 40
0.075
  1
OFF
  7
HL-HD
100
AcDbText
  0
CIRCLE
  5
1C03
330
18C7
100
AcDbEntity
  8
0
100
AcDbCircle
 10
0.3789999999999996
 20
0.0039999999999996
 30
0.0
 40
0.0955
  0
TEXT
  5
1C04
330
18C7
100
AcDbEntity
  8
SILK-SCREEN
100
AcDbText
 10
0.2952915983087338
 20
0.2018091553779246
 30
0.0
 40
0.075
  1
ON
  7
HL-HD
100
AcDbText
  0
INSERT
  5
1C05
330
18C7
100
AcDbEntity
  8
SILK-SCREEN
100
AcDbBlockReference
  2
LOGO
 10
-0.3027220721715551
 20
0.5046820889181625
 30
0.0
 41
0.3
 42
0.3
 43
0.3
  0
ENDBLK
  5
1BE0
330
18C7
100
AcDbEntity
  8
0
100
AcDbBlockEnd
  0
BLOCK
  5
1BEE
330
1BE1
100
AcDbEntity
  8
0
100
AcDbBlockBegin
  2
CE-MARK
 70
     0
 10
0.0
 20
0.0
 30
0.0
  3
CE-MARK
  1

  0
LWPOLYLINE
  5
1BE2
330
1BE1
100
AcDbEntity
  8
0
100
AcDbPolyline
 90
        2
 70
     0
 43
0.04
 10
-0.0367329377906423
 20
0.0837807382545677
 42
1.0
 10
-0.0367329377906423
 20
-0.0862192617454323
 42
1.0
  0
LWPOLYLINE
  5
1BE6
330
1BE1
100
AcDbEntity
  8
0
100
AcDbPolyline
 90
        2
 70
     0
 43
0.04
 10
0.0297280929639587
 20
-0.0011890584698246
 10
0.1197280929639586
 20
-0.0011890584698246
  0
LWPOLYLINE
  5
1BEA
330
1BE1
100
AcDbEntity
  8
0
100
AcDbPolyline
 90
        2
 70
     0
 43
0.04
 10
0.1332670622093577
 20
0.0837807382545677
 42
1.0
 10
0.1332670622093577
 20
-0.0862192617454323
 42
1.0
  0
ENDBLK
  5
1BEF
330
1BE1
100
AcDbEntity
  8
0
100
AcDbBlockEnd
  0
BLOCK
  5
1FF3
330
1FF2
100
AcDbEntity
  8
0
100
AcDbBlockBegin
  2
*X8
 70
     1
 10
0.0
 20
0.0
 30
0.0
  3
*X8
  1

  0
LINE
  5
1FF5
330
1FF2
100
AcDbEntity
  8
0
 62
     0
100
AcDbLine
 10
8.994075411326862
 20
12.46661539768485
 30
0.0
 11
8.947870171166675
 21
12.51282063784504
 31
0.0
  0
LINE
  5
1FF6
330
1FF2
100
AcDbEntity
  8
0
 62
     0
100
AcDbLine
 10
8.947870171166675
 20
12.51282063784504
 30
0.0
 11
8.931575411326859
 21
12.52911539768485
 31
0.0
  0
LINE
  5
1FF7
330
1FF2
100
AcDbEntity
  8
0
 62
     0
100
AcDbLine
 10
8.994075411326862
 20
12.43126005862553
 30
0.0
 11
8.931575411326859
 21
12.49376005862552
 31
0.0
  0
LINE
  5
1FF8
330
1FF2
100
AcDbEntity
  8
0
 62
     0
100
AcDbLine
 10
8.994075411326862
 20
12.3959047195662
 30
0.0
 11
8.931575411326859
 21
12.45840471956619
 31
0.0
  0
LINE
  5
1FF9
330
1FF2
100
AcDbEntity
  8
0
 62
     0
100
AcDbLine
 10
8.994075411326862
 20
12.36054938050688
 30
0.0
 11
8.931575411326859
 21
12.42304938050687
 31
0.0
  0
LINE
  5
1FFA
330
1FF2
100
AcDbEntity
  8
0
 62
     0
100
AcDbLine
 10
8.994075411326862
 20
12.32519404144754
 30
0.0
 11
8.931575411326859
 21
12.38769404144754
 31
0.0
  0
LINE
  5
1FFB
330
1FF2
100
AcDbEntity
  8
0
 62
     0
100
AcDbLine
 10
8.994075411326862
 20
12.28983870238822
 30
0.0
 11
8.931575411326859
 21
12.35233870238822
 31
0.0
  0
LINE
  5
1FFC
330
1FF2
100
AcDbEntity
  8
0
 62
     0
100
AcDbLine
 10
8.994075411326862
 20
12.25448336332889
 30
0.0
 11
8.931575411326859
 21
12.31698336332889
 31
0.0
  0
LINE
  5
1FFD
330
1FF2
100
AcDbEntity
  8
0
 62
     0
100
AcDbLine
 10
8.99188279775139
 20
12.22132063784503
 30
0.0
 11
8.931575411326859
 21
12.28162802426956
 31
0.0
  0
LINE
  5
1FFE
330
1FF2
100
AcDbEntity
  8
0
 62
     0
100
AcDbLine
 10
8.956527458692056
 20
12.22132063784504
 30
0.0
 11
8.931575411326859
 21
12.24627268521023
 31
0.0
  0
LINE
  5
1FFF
330
1FF2
100
AcDbEntity
  8
0
 62
     0
100
AcDbLine
 10
8.994075411326861
 20
12.04235132897292
 30
0.0
 11
8.990106102454749
 21
12.04632063784504
 31
0.0
  0
LINE
  5
2000
330
1FF2
100
AcDbEntity
  8
0
 62
     0
100
AcDbLine
 10
8.994075411326861
 20
12.00699598991359
 30
0.0
 11
8.954750763395425
 21
12.04632063784504
 31
0.0
  0
LINE
  5
2001
330
1FF2
100
AcDbEntity
  8
0
 62
     0
100
AcDbLine
 10
8.994075411326861
 20
11.97164065085427
 30
0.0
 11
8.931575411326859
 21
12.03414065085427
 31
0.0
  0
LINE
  5
2002
330
1FF2
100
AcDbEntity
  8
0
 62
     0
100
AcDbLine
 10
8.994075411326861
 20
11.93628531179494
 30
0.0
 11
8.931575411326859
 21
11.99878531179494
 31
0.0
  0
LINE
  5
2003
330
1FF2
100
AcDbEntity
  8
0
 62
     0
100
AcDbLine
 10
8.994075411326861
 20
11.90092997273561
 30
0.0
 11
8.931575411326861
 21
11.96342997273561
 31
0.0
  0
LINE
  5
2004
330
1FF2
100
AcDbEntity
  8
0
 62
     0
100
AcDbLine
 10
8.994075411326861
 20
11.86557463367629
 30
0.0
 11
8.931575411326861
 21
11.92807463367629
 31
0.0
  0
LINE
  5
2005
330
1FF2
100
AcDbEntity
  8
0
 62
     0
100
AcDbLine
 10
8.994075411326861
 20
11.83021929461695
 30
0.0
 11
8.931575411326861
 21
11.89271929461696
 31
0.0
  0
LINE
  5
2006
330
1FF2
100
AcDbEntity
  8
0
 62
     0
100
AcDbLine
 10
8.994075411326861
 20
11.79486395555763
 30
0.0
 11
8.931575411326861
 21
11.85736395555763
 31
0.0
  0
LINE
  5
2007
330
1FF2
100
AcDbEntity
  8
0
 62
     0
100
AcDbLine
 10
8.990763389980132
 20
11.76282063784503
 30
0.0
 11
8.931575411326861
 21
11.8220086164983
 31
0.0
  0
LINE
  5
2008
330
1FF2
100
AcDbEntity
  8
0
 62
     0
100
AcDbLine
 10
8.955408050920802
 20
11.76282063784503
 30
0.0
 11
8.931575411326861
 21
11.78665327743897
 31
0.0
  0
LINE
  5
2009
330
1FF2
100
AcDbEntity
  8
0
 62
     0
100
AcDbLine
 10
8.994075411326862
 20
12.50197073674418
 30
0.0
 11
8.983225510226004
 21
12.51282063784504
 31
0.0
  0
LINE
  5
200A
330
1FF2
100
AcDbEntity
  8
0
 62
     0
100
AcDbLine
 10
8.983225510226001
 20
12.51282063784504
 30
0.0
 11
8.931575411326859
 21
12.56447073674418
 31
0.0
  0
LINE
  5
200B
330
1FF2
100
AcDbEntity
  8
0
 62
     0
100
AcDbLine
 10
8.994075411326862
 20
12.53732607580351
 30
0.0
 11
8.942580849285331
 21
12.58882063784503
 31
0.0
  0
LINE
  5
200C
330
1FF2
100
AcDbEntity
  8
0
 62
     0
100
AcDbLine
 10
8.994075411326862
 20
12.57268141486283
 30
0.0
 11
8.963575411326861
 21
12.60318141486283
 31
0.0
  0
LINE
  5
200D
330
1FF2
100
AcDbEntity
  8
0
 62
     0
100
AcDbLine
 10
8.994075411326862
 20
12.60803675392216
 30
0.0
 11
8.981791527403984
 21
12.62032063784503
 31
0.0
  0
LINE
  5
200E
330
1FF2
100
AcDbEntity
  8
0
 62
     0
100
AcDbLine
 10
8.994075411326859
 20
12.99694548357476
 30
0.0
 11
8.931575411326857
 21
13.05944548357477
 31
0.0
  0
LINE
  5
200F
330
1FF2
100
AcDbEntity
  8
0
 62
     0
100
AcDbLine
 10
8.994075411326861
 20
13.03230082263409
 30
0.0
 11
8.931575411326857
 21
13.0948008226341
 31
0.0
  0
LINE
  5
2010
330
1FF2
100
AcDbEntity
  8
0
 62
     0
100
AcDbLine
 10
8.994075411326861
 20
13.06765616169341
 30
0.0
 11
8.931575411326857
 21
13.13015616169342
 31
0.0
  0
LINE
  5
2011
330
1FF2
100
AcDbEntity
  8
0
 62
     0
100
AcDbLine
 10
8.994075411326861
 20
13.10301150075275
 30
0.0
 11
8.931575411326857
 21
13.16551150075275
 31
0.0
  0
LINE
  5
2012
330
1FF2
100
AcDbEntity
  8
0
 62
     0
100
AcDbLine
 10
8.994075411326861
 20
13.13836683981207
 30
0.0
 11
8.931575411326857
 21
13.20086683981207
 31
0.0
  0
LINE
  5
2013
330
1FF2
100
AcDbEntity
  8
0
 62
     0
100
AcDbLine
 10
8.994075411326861
 20
13.1737221788714
 30
0.0
 11
8.931575411326857
 21
13.2362221788714
 31
0.0
  0
LINE
  5
2014
330
1FF2
100
AcDbEntity
  8
0
 62
     0
100
AcDbLine
 10
8.994075411326862
 20
13.20907751793072
 30
0.0
 11
8.940332291412556
 21
13.26282063784503
 31
0.0
  0
LINE
  5
2015
330
1FF2
100
AcDbEntity
  8
0
 62
     0
100
AcDbLine
 10
8.994075411326862
 20
13.24443285699005
 30
0.0
 11
8.975687630471885
 21
13.26282063784503
 31
0.0
  0
ENDBLK
  5
2016
330
1FF2
100
AcDbEntity
  8
0
100
AcDbBlockEnd
  0
BLOCK
  5
21DC
330
21DB
100
AcDbEntity
  8
0
100
AcDbBlockBegin
  2
*X9
 70
     1
 10
0.0
 20
0.0
 30
0.0
  3
*X9
  1

  0
LINE
  5
21DE
330
21DB
100
AcDbEntity
  8
0
 62
     0
100
AcDbLine
 10
9.14666732414105
 20
13.14182063784504
 30
0.0
 11
9.181575411326861
 21
13.17672872503085
 31
0.0
  0
LINE
  5
21DF
330
21DB
100
AcDbEntity
  8
0
 62
     0
100
AcDbLine
 10
9.111311985081723
 20
13.14182063784504
 30
0.0
 11
9.181575411326862
 21
13.21208406409018
 31
0.0
  0
LINE
  5
21E0
330
21DB
100
AcDbEntity
  8
0
 62
     0
100
AcDbLine
 10
9.075956646022397
 20
13.14182063784504
 30
0.0
 11
9.161956646022392
 21
13.22782063784504
 31
0.0
  0
LINE
  5
21E1
330
21DB
100
AcDbEntity
  8
0
 62
     0
100
AcDbLine
 10
9.04060130696307
 20
13.14182063784504
 30
0.0
 11
9.126601306963067
 21
13.22782063784504
 31
0.0
  0
LINE
  5
21E2
330
21DB
100
AcDbEntity
  8
0
 62
     0
100
AcDbLine
 10
9.005245967903741
 20
13.14182063784504
 30
0.0
 11
9.091245967903738
 21
13.22782063784504
 31
0.0
  0
LINE
  5
21E3
330
21DB
100
AcDbEntity
  8
0
 62
     0
100
AcDbLine
 10
8.994075411326859
 20
13.16600542032748
 30
0.0
 11
9.055890628844412
 21
13.22782063784504
 31
0.0
  0
LINE
  5
21E4
330
21DB
100
AcDbEntity
  8
0
 62
     0
100
AcDbLine
 10
8.994075411326859
 20
13.20136075938681
 30
0.0
 11
9.020535289785083
 21
13.22782063784504
 31
0.0
  0
LINE
  5
21E5
330
21DB
100
AcDbEntity
  8
0
 62
     0
100
AcDbLine
 10
8.994075411326861
 20
11.8932132141917
 30
0.0
 11
8.999682834980191
 21
11.89882063784503
 31
0.0
  0
LINE
  5
21E6
330
21DB
100
AcDbEntity
  8
0
 62
     0
100
AcDbLine
 10
8.994075411326862
 20
11.85785787513237
 30
0.0
 11
9.03503817403952
 21
11.89882063784503
 31
0.0
  0
LINE
  5
21E7
330
21DB
100
AcDbEntity
  8
0
 62
     0
100
AcDbLine
 10
8.994075411326862
 20
11.82250253607305
 30
0.0
 11
9.070393513098848
 21
11.89882063784503
 31
0.0
  0
LINE
  5
21E8
330
21DB
100
AcDbEntity
  8
0
 62
     0
100
AcDbLine
 10
8.994075411326862
 20
11.78714719701372
 30
0.0
 11
9.105748852158175
 21
11.89882063784503
 31
0.0
  0
LINE
  5
21E9
330
21DB
100
AcDbEntity
  8
0
 62
     0
100
AcDbLine
 10
9.005104191217501
 20
11.76282063784503
 30
0.0
 11
9.141104191217502
 21
11.89882063784503
 31
0.0
  0
LINE
  5
21EA
330
21DB
100
AcDbEntity
  8
0
 62
     0
100
AcDbLine
 10
9.04045953027683
 20
11.76282063784503
 30
0.0
 11
9.162075411326858
 21
11.88443651889506
 31
0.0
  0
LINE
  5
21EB
330
21DB
100
AcDbEntity
  8
0
 62
     0
100
AcDbLine
 10
9.075814869336156
 20
11.76282063784503
 30
0.0
 11
9.162075411326858
 21
11.84908117983573
 31
0.0
  0
LINE
  5
21EC
330
21DB
100
AcDbEntity
  8
0
 62
     0
100
AcDbLine
 10
9.111170208395483
 20
11.76282063784503
 30
0.0
 11
9.162075411326858
 21
11.81372584077641
 31
0.0
  0
LINE
  5
21ED
330
21DB
100
AcDbEntity
  8
0
 62
     0
100
AcDbLine
 10
9.14652554745481
 20
11.76282063784503
 30
0.0
 11
9.162075411326858
 21
11.77837050171708
 31
0.0
  0
ENDBLK
  5
21EE
330
21DB
100
AcDbEntity
  8
0
100
AcDbBlockEnd
  0
BLOCK
  5
2206
330
2205
100
AcDbEntity
  8
0
100
AcDbBlockBegin
  2
*X10
 70
     1
 10
0.0
 20
0.0
 30
0.0
  3
*X10
  1

  0
LINE
  5
2208
330
2205
100
AcDbEntity
  8
0
 62
     0
100
AcDbLine
 10
9.485220714734319
 20
13.12682063784504
 30
0.0
 11
9.535304107138067
 21
13.17690403024879
 31
0.0
  0
LINE
  5
2209
330
2205
100
AcDbEntity
  8
0
 62
     0
100
AcDbLine
 10
9.449865375674992
 20
13.12682063784504
 30
0.0
 11
9.525661741940069
 21
13.20261700411011
 31
0.0
  0
LINE
  5
220A
330
2205
100
AcDbEntity
  8
0
 62
     0
100
AcDbLine
 10
9.414510036615665
 20
13.12682063784504
 30
0.0
 11
9.516019376742072
 21
13.22832997797144
 31
0.0
  0
LINE
  5
220B
330
2205
100
AcDbEntity
  8
0
 62
     0
100
AcDbLine
 10
9.379154697556337
 20
13.12682063784504
 30
0.0
 11
9.506377011544074
 21
13.25404295183277
 31
0.0
  0
LINE
  5
220C
330
2205
100
AcDbEntity
  8
0
 62
     0
100
AcDbLine
 10
9.34379935849701
 20
13.12682063784504
 30
0.0
 11
9.479799358497007
 21
13.26282063784503
 31
0.0
  0
LINE
  5
220D
330
2205
100
AcDbEntity
  8
0
 62
     0
100
AcDbLine
 10
9.308444019437683
 20
13.12682063784504
 30
0.0
 11
9.44444401943768
 21
13.26282063784503
 31
0.0
  0
LINE
  5
220E
330
2205
100
AcDbEntity
  8
0
 62
     0
100
AcDbLine
 10
9.273088680378354
 20
13.12682063784504
 30
0.0
 11
9.409088680378353
 21
13.26282063784503
 31
0.0
  0
LINE
  5
220F
330
2205
100
AcDbEntity
  8
0
 62
     0
100
AcDbLine
 10
9.237733341319026
 20
13.12682063784504
 30
0.0
 11
9.373733341319026
 21
13.26282063784503
 31
0.0
  0
LINE
  5
2210
330
2205
100
AcDbEntity
  8
0
 62
     0
100
AcDbLine
 10
9.202378002259699
 20
13.12682063784504
 30
0.0
 11
9.3383780022597
 21
13.26282063784503
 31
0.0
  0
LINE
  5
2211
330
2205
100
AcDbEntity
  8
0
 62
     0
100
AcDbLine
 10
9.167022663200372
 20
13.12682063784504
 30
0.0
 11
9.303022663200371
 21
13.26282063784503
 31
0.0
  0
LINE
  5
2212
330
2205
100
AcDbEntity
  8
0
 62
     0
100
AcDbLine
 10
9.131667324141044
 20
13.12682063784504
 30
0.0
 11
9.146667324141052
 21
13.14182063784504
 31
0.0
  0
LINE
  5
2213
330
2205
100
AcDbEntity
  8
0
 62
     0
100
AcDbLine
 10
9.181575411326861
 20
13.17672872503085
 30
0.0
 11
9.267667324141045
 21
13.26282063784503
 31
0.0
  0
LINE
  5
2214
330
2205
100
AcDbEntity
  8
0
 62
     0
100
AcDbLine
 10
9.096311985081717
 20
13.12682063784504
 30
0.0
 11
9.111311985081725
 21
13.14182063784504
 31
0.0
  0
LINE
  5
2215
330
2205
100
AcDbEntity
  8
0
 62
     0
100
AcDbLine
 10
9.181575411326862
 20
13.21208406409018
 30
0.0
 11
9.232311985081718
 21
13.26282063784503
 31
0.0
  0
LINE
  5
2216
330
2205
100
AcDbEntity
  8
0
 62
     0
100
AcDbLine
 10
9.060956646022388
 20
13.12682063784504
 30
0.0
 11
9.075956646022396
 21
13.14182063784504
 31
0.0
  0
LINE
  5
2217
330
2205
100
AcDbEntity
  8
0
 62
     0
100
AcDbLine
 10
9.161956646022396
 20
13.22782063784504
 30
0.0
 11
9.196956646022391
 21
13.26282063784503
 31
0.0
  0
LINE
  5
2218
330
2205
100
AcDbEntity
  8
0
 62
     0
100
AcDbLine
 10
9.025601306963061
 20
13.12682063784503
 30
0.0
 11
9.040601306963068
 21
13.14182063784504
 31
0.0
  0
LINE
  5
2219
330
2205
100
AcDbEntity
  8
0
 62
     0
100
AcDbLine
 10
9.126601306963067
 20
13.22782063784504
 30
0.0
 11
9.161601306963063
 21
13.26282063784504
 31
0.0
  0
LINE
  5
221A
330
2205
100
AcDbEntity
  8
0
 62
     0
100
AcDbLine
 10
8.994075411326857
 20
13.13065008126816
 30
0.0
 11
9.005245967903741
 21
13.14182063784504
 31
0.0
  0
LINE
  5
221B
330
2205
100
AcDbEntity
  8
0
 62
     0
100
AcDbLine
 10
9.091245967903738
 20
13.22782063784504
 30
0.0
 11
9.126245967903736
 21
13.26282063784504
 31
0.0
  0
LINE
  5
221C
330
2205
100
AcDbEntity
  8
0
 62
     0
100
AcDbLine
 10
9.055890628844412
 20
13.22782063784504
 30
0.0
 11
9.090890628844409
 21
13.26282063784504
 31
0.0
  0
LINE
  5
221D
330
2205
100
AcDbEntity
  8
0
 62
     0
100
AcDbLine
 10
9.020535289785085
 20
13.22782063784504
 30
0.0
 11
9.055535289785082
 21
13.26282063784504
 31
0.0
  0
LINE
  5
221E
330
2205
100
AcDbEntity
  8
0
 62
     0
100
AcDbLine
 10
8.994075411326861
 20
13.23671609844614
 30
0.0
 11
9.020179950725754
 21
13.26282063784504
 31
0.0
  0
LINE
  5
221F
330
2205
100
AcDbEntity
  8
0
 62
     0
100
AcDbLine
 10
9.504647879289475
 20
13.11089246334087
 30
0.0
 11
9.544946472336066
 21
13.15119105638745
 31
0.0
  0
LINE
  5
2220
330
2205
100
AcDbEntity
  8
0
 62
     0
100
AcDbLine
 10
9.504647879289475
 20
13.07553712428154
 30
0.0
 11
9.554588837534064
 21
13.12547808252612
 31
0.0
  0
LINE
  5
2221
330
2205
100
AcDbEntity
  8
0
 62
     0
100
AcDbLine
 10
9.504647879289475
 20
13.04018178522221
 30
0.0
 11
9.554647879289476
 21
13.09018178522221
 31
0.0
  0
LINE
  5
2222
330
2205
100
AcDbEntity
  8
0
 62
     0
100
AcDbLine
 10
9.504647879289475
 20
13.00482644616288
 30
0.0
 11
9.554647879289476
 21
13.05482644616288
 31
0.0
  0
LINE
  5
2223
330
2205
100
AcDbEntity
  8
0
 62
     0
100
AcDbLine
 10
9.504647879289475
 20
12.96947110710355
 30
0.0
 11
9.554684310069319
 21
13.0195075378834
 31
0.0
  0
LINE
  5
2224
330
2205
100
AcDbEntity
  8
0
 62
     0
100
AcDbLine
 10
9.528352749090284
 20
12.95782063784504
 30
0.0
 11
9.572102749090289
 21
13.00157063784504
 31
0.0
  0
LINE
  5
2225
330
2205
100
AcDbEntity
  8
0
 62
     0
100
AcDbLine
 10
9.563708088149612
 20
12.95782063784504
 30
0.0
 11
9.610458088149615
 21
13.00457063784504
 31
0.0
  0
LINE
  5
2226
330
2205
100
AcDbEntity
  8
0
 62
     0
100
AcDbLine
 10
9.570647879289476
 20
12.92940508992557
 30
0.0
 11
9.645813427208944
 21
13.00457063784504
 31
0.0
  0
LINE
  5
2227
330
2205
100
AcDbEntity
  8
0
 62
     0
100
AcDbLine
 10
9.570647879289476
 20
12.89404975086624
 30
0.0
 11
9.654075411326861
 21
12.97747728290363
 31
0.0
  0
LINE
  5
2228
330
2205
100
AcDbEntity
  8
0
 62
     0
100
AcDbLine
 10
9.570647879289476
 20
12.85869441180692
 30
0.0
 11
9.654075411326861
 21
12.9421219438443
 31
0.0
  0
LINE
  5
2229
330
2205
100
AcDbEntity
  8
0
 62
     0
100
AcDbLine
 10
9.570647879289477
 20
12.82333907274759
 30
0.0
 11
9.654075411326861
 21
12.90676660478498
 31
0.0
  0
LINE
  5
222A
330
2205
100
AcDbEntity
  8
0
 62
     0
100
AcDbLine
 10
9.570647879289477
 20
12.78798373368826
 30
0.0
 11
9.654075411326861
 21
12.87141126572565
 31
0.0
  0
LINE
  5
222B
330
2205
100
AcDbEntity
  8
0
 62
     0
100
AcDbLine
 10
9.570647879289477
 20
12.75262839462894
 30
0.0
 11
9.654075411326861
 21
12.83605592666632
 31
0.0
  0
LINE
  5
222C
330
2205
100
AcDbEntity
  8
0
 62
     0
100
AcDbLine
 10
9.570647879289477
 20
12.71727305556961
 30
0.0
 11
9.654075411326861
 21
12.80070058760699
 31
0.0
  0
LINE
  5
222D
330
2205
100
AcDbEntity
  8
0
 62
     0
100
AcDbLine
 10
9.570647879289477
 20
12.68191771651028
 30
0.0
 11
9.654075411326861
 21
12.76534524854767
 31
0.0
  0
LINE
  5
222E
330
2205
100
AcDbEntity
  8
0
 62
     0
100
AcDbLine
 10
9.605906139683556
 20
12.68182063784503
 30
0.0
 11
9.654075411326861
 21
12.72998990948834
 31
0.0
  0
LINE
  5
222F
330
2205
100
AcDbEntity
  8
0
 62
     0
100
AcDbLine
 10
9.641261478742883
 20
12.68182063784503
 30
0.0
 11
9.654075411326861
 21
12.69463457042901
 31
0.0
  0
ENDBLK
  5
2230
330
2205
100
AcDbEntity
  8
0
100
AcDbBlockEnd
  0
BLOCK
  5
2368
330
2367
100
AcDbEntity
  8
0
100
AcDbBlockBegin
  2
*X11
 70
     1
 10
0.0
 20
0.0
 30
0.0
  3
*X11
  1

  0
LINE
  5
236A
330
2367
100
AcDbEntity
  8
0
 62
     0
100
AcDbLine
 10
9.326075411326863
 20
11.87165982359843
 30
0.0
 11
9.35323622557347
 21
11.89882063784504
 31
0.0
  0
LINE
  5
236B
330
2367
100
AcDbEntity
  8
0
 62
     0
100
AcDbLine
 10
9.570647879289479
 20
12.11623229156105
 30
0.0
 11
9.654075411326859
 21
12.19965982359842
 31
0.0
  0
LINE
  5
236C
330
2367
100
AcDbEntity
  8
0
 62
     0
100
AcDbLine
 10
9.504647879289475
 20
12.05023229156104
 30
0.0
 11
9.522236225573468
 21
12.06782063784504
 31
0.0
  0
LINE
  5
236D
330
2367
100
AcDbEntity
  8
0
 62
     0
100
AcDbLine
 10
9.570647879289477
 20
12.15158763062037
 30
0.0
 11
9.654075411326857
 21
12.23501516265775
 31
0.0
  0
LINE
  5
236E
330
2367
100
AcDbEntity
  8
0
 62
     0
100
AcDbLine
 10
9.570647879289477
 20
12.1869429696797
 30
0.0
 11
9.654075411326857
 21
12.27037050171708
 31
0.0
  0
LINE
  5
236F
330
2367
100
AcDbEntity
  8
0
 62
     0
100
AcDbLine
 10
9.570647879289477
 20
12.22229830873903
 30
0.0
 11
9.654075411326857
 21
12.30572584077641
 31
0.0
  0
LINE
  5
2370
330
2367
100
AcDbEntity
  8
0
 62
     0
100
AcDbLine
 10
9.570647879289477
 20
12.25765364779835
 30
0.0
 11
9.650445140331507
 21
12.33745090884038
 31
0.0
  0
LINE
  5
2371
330
2367
100
AcDbEntity
  8
0
 62
     0
100
AcDbLine
 10
9.570647879289477
 20
12.29300898685768
 30
0.0
 11
9.621459530276828
 21
12.34382063784503
 31
0.0
  0
LINE
  5
2372
330
2367
100
AcDbEntity
  8
0
 62
     0
100
AcDbLine
 10
9.570647879289477
 20
12.32836432591701
 30
0.0
 11
9.586104191217501
 21
12.34382063784503
 31
0.0
  0
LINE
  5
2373
330
2367
100
AcDbEntity
  8
0
 62
     0
100
AcDbLine
 10
9.326075411326863
 20
11.8363044845391
 30
0.0
 11
9.388591564632797
 21
11.89882063784504
 31
0.0
  0
LINE
  5
2374
330
2367
100
AcDbEntity
  8
0
 62
     0
100
AcDbLine
 10
9.570647879289479
 20
12.08087695250172
 30
0.0
 11
9.654075411326859
 21
12.1643044845391
 31
0.0
  0
LINE
  5
2375
330
2367
100
AcDbEntity
  8
0
 62
     0
100
AcDbLine
 10
9.504647879289475
 20
12.01487695250171
 30
0.0
 11
9.557591564632794
 21
12.06782063784503
 31
0.0
  0
LINE
  5
2376
330
2367
100
AcDbEntity
  8
0
 62
     0
100
AcDbLine
 10
9.326075411326863
 20
11.80094914547978
 30
0.0
 11
9.423946903692124
 21
11.89882063784504
 31
0.0
  0
LINE
  5
2377
330
2367
100
AcDbEntity
  8
0
 62
     0
100
AcDbLine
 10
9.504647879289475
 20
11.97952161344239
 30
0.0
 11
9.654075411326859
 21
12.12894914547977
 31
0.0
  0
LINE
  5
2378
330
2367
100
AcDbEntity
  8
0
 62
     0
100
AcDbLine
 10
9.326075411326863
 20
11.76559380642045
 30
0.0
 11
9.45930224275145
 21
11.89882063784504
 31
0.0
  0
LINE
  5
2379
330
2367
100
AcDbEntity
  8
0
 62
     0
100
AcDbLine
 10
9.574364162581062
 20
12.01388255767465
 30
0.0
 11
9.654075411326859
 21
12.09359380642045
 31
0.0
  0
LINE
  5
237A
330
2367
100
AcDbEntity
  8
0
 62
     0
100
AcDbLine
 10
9.504647879289475
 20
11.94416627438306
 30
0.0
 11
9.554647879289472
 21
11.99416627438306
 31
0.0
  0
LINE
  5
237B
330
2367
100
AcDbEntity
  8
0
 62
     0
100
AcDbLine
 10
9.358657581810778
 20
11.76282063784503
 30
0.0
 11
9.494657581810777
 21
11.89882063784504
 31
0.0
  0
LINE
  5
237C
330
2367
100
AcDbEntity
  8
0
 62
     0
100
AcDbLine
 10
9.606907581810769
 20
12.01107063784503
 30
0.0
 11
9.654075411326859
 21
12.05823846736112
 31
0.0
  0
LINE
  5
237D
330
2367
100
AcDbEntity
  8
0
 62
     0
100
AcDbLine
 10
9.504647879289475
 20
11.90881093532373
 30
0.0
 11
9.554647879289472
 21
11.95881093532373
 31
0.0
  0
LINE
  5
237E
330
2367
100
AcDbEntity
  8
0
 62
     0
100
AcDbLine
 10
9.394012920870105
 20
11.76282063784504
 30
0.0
 11
9.554647879289472
 21
11.9234555962644
 31
0.0
  0
LINE
  5
237F
330
2367
100
AcDbEntity
  8
0
 62
     0
100
AcDbLine
 10
9.642262920870097
 20
12.01107063784503
 30
0.0
 11
9.654075411326861
 21
12.02288312830179
 31
0.0
  0
LINE
  5
2380
330
2367
100
AcDbEntity
  8
0
 62
     0
100
AcDbLine
 10
9.429368259929434
 20
11.76282063784504
 30
0.0
 11
9.553315650905501
 21
11.8867680288211
 31
0.0
  0
LINE
  5
2381
330
2367
100
AcDbEntity
  8
0
 62
     0
100
AcDbLine
 10
9.464723598988761
 20
11.76282063784504
 30
0.0
 11
9.532102447469906
 21
11.83019948632618
 31
0.0
  0
LINE
  5
2382
330
2367
100
AcDbEntity
  8
0
 62
     0
100
AcDbLine
 10
9.500078938048091
 20
11.76282063784504
 30
0.0
 11
9.510889244034311
 21
11.77363094383126
 31
0.0
  0
ENDBLK
  5
2383
330
2367
100
AcDbEntity
  8
0
100
AcDbBlockEnd
  0
BLOCK
  5
24BA
330
24B9
100
AcDbEntity
  8
0
100
AcDbBlockBegin
  2
*X12
 70
     1
 10
0.0
 20
0.0
 30
0.0
  3
*X12
  1

  0
LINE
  5
24BC
330
24B9
100
AcDbEntity
  8
0
 62
     0
100
AcDbLine
 10
10.48398622557347
 20
13.02957063784504
 30
0.0
 11
10.50661330111983
 21
13.0521977133914
 31
0.0
  0
LINE
  5
24BD
330
24B9
100
AcDbEntity
  8
0
 62
     0
100
AcDbLine
 10
10.44863088651414
 20
13.02957063784504
 30
0.0
 11
10.50661330111983
 21
13.08755305245073
 31
0.0
  0
LINE
  5
24BE
330
24B9
100
AcDbEntity
  8
0
 62
     0
100
AcDbLine
 10
10.41327554745482
 20
13.02957063784504
 30
0.0
 11
10.49152554745481
 21
13.10782063784504
 31
0.0
  0
LINE
  5
24BF
330
24B9
100
AcDbEntity
  8
0
 62
     0
100
AcDbLine
 10
10.37792020839549
 20
13.02957063784504
 30
0.0
 11
10.45617020839548
 21
13.10782063784504
 31
0.0
  0
LINE
  5
24C0
330
24B9
100
AcDbEntity
  8
0
 62
     0
100
AcDbLine
 10
10.34256486933616
 20
13.02957063784504
 30
0.0
 11
10.42081486933615
 21
13.10782063784503
 31
0.0
  0
LINE
  5
24C1
330
24B9
100
AcDbEntity
  8
0
 62
     0
100
AcDbLine
 10
10.30720953027683
 20
13.02957063784504
 30
0.0
 11
10.38545953027683
 21
13.10782063784503
 31
0.0
  0
LINE
  5
24C2
330
24B9
100
AcDbEntity
  8
0
 62
     0
100
AcDbLine
 10
10.27185419121751
 20
13.02957063784504
 30
0.0
 11
10.3501041912175
 21
13.10782063784503
 31
0.0
  0
LINE
  5
24C3
330
24B9
100
AcDbEntity
  8
0
 62
     0
100
AcDbLine
 10
10.23649885215818
 20
13.02957063784504
 30
0.0
 11
10.31474885215817
 21
13.10782063784503
 31
0.0
  0
LINE
  5
24C4
330
24B9
100
AcDbEntity
  8
0
 62
     0
100
AcDbLine
 10
10.22661330111983
 20
13.05504042586602
 30
0.0
 11
10.27939351309884
 21
13.10782063784503
 31
0.0
  0
LINE
  5
24C5
330
24B9
100
AcDbEntity
  8
0
 62
     0
100
AcDbLine
 10
10.22661330111983
 20
13.09039576492534
 30
0.0
 11
10.24403817403951
 21
13.10782063784503
 31
0.0
  0
LINE
  5
24C6
330
24B9
100
AcDbEntity
  8
0
 62
     0
100
AcDbLine
 10
10.22661330111983
 20
11.99438025408619
 30
0.0
 11
10.22830368487866
 21
11.99607063784503
 31
0.0
  0
LINE
  5
24C7
330
24B9
100
AcDbEntity
  8
0
 62
     0
100
AcDbLine
 10
10.22661330111983
 20
11.95902491502687
 30
0.0
 11
10.26365902393799
 21
11.99607063784503
 31
0.0
  0
LINE
  5
24C8
330
24B9
100
AcDbEntity
  8
0
 62
     0
100
AcDbLine
 10
10.22661330111982
 20
11.92366957596754
 30
0.0
 11
10.29901436299731
 21
11.99607063784503
 31
0.0
  0
LINE
  5
24C9
330
24B9
100
AcDbEntity
  8
0
 62
     0
100
AcDbLine
 10
10.25611970205664
 20
11.91782063784503
 30
0.0
 11
10.33436970205664
 21
11.99607063784503
 31
0.0
  0
LINE
  5
24CA
330
24B9
100
AcDbEntity
  8
0
 62
     0
100
AcDbLine
 10
10.29147504111597
 20
11.91782063784503
 30
0.0
 11
10.36972504111597
 21
11.99607063784503
 31
0.0
  0
LINE
  5
24CB
330
24B9
100
AcDbEntity
  8
0
 62
     0
100
AcDbLine
 10
10.3268303801753
 20
11.91782063784503
 30
0.0
 11
10.4050803801753
 21
11.99607063784503
 31
0.0
  0
LINE
  5
24CC
330
24B9
100
AcDbEntity
  8
0
 62
     0
100
AcDbLine
 10
10.36218571923463
 20
11.91782063784503
 30
0.0
 11
10.44043571923462
 21
11.99607063784503
 31
0.0
  0
LINE
  5
24CD
330
24B9
100
AcDbEntity
  8
0
 62
     0
100
AcDbLine
 10
10.39754105829395
 20
11.91782063784503
 30
0.0
 11
10.47579105829395
 21
11.99607063784503
 31
0.0
  0
LINE
  5
24CE
330
24B9
100
AcDbEntity
  8
0
 62
     0
100
AcDbLine
 10
10.43289639735328
 20
11.91782063784503
 30
0.0
 11
10.50661330111983
 21
11.99153754161158
 31
0.0
  0
LINE
  5
24CF
330
24B9
100
AcDbEntity
  8
0
 62
     0
100
AcDbLine
 10
10.46825173641261
 20
11.91782063784503
 30
0.0
 11
10.50661330111983
 21
11.95618220255225
 31
0.0
  0
LINE
  5
24D0
330
24B9
100
AcDbEntity
  8
0
 62
     0
100
AcDbLine
 10
10.50360707547194
 20
11.91782063784503
 30
0.0
 11
10.50661330111983
 21
11.92082686349292
 31
0.0
  0
ENDBLK
  5
24D1
330
24B9
100
AcDbEntity
  8
0
100
AcDbBlockEnd
  0
BLOCK
  5
25FA
330
25F8
100
AcDbEntity
  8
0
100
AcDbBlockBegin
  2
A$C7304
 70
     0
 10
0.0
 20
0.0
 30
0.0
  3
A$C7304
  1

  0
INSERT
  5
25F9
330
25F8
100
AcDbEntity
  8
0
100
AcDbBlockReference
  2
CE-MARK
 10
0.1434523140242829
 20
0.1063883372445478
 30
0.0
  0
ENDBLK
  5
25FB
330
25F8
100
AcDbEntity
  8
0
100
AcDbBlockEnd
  0
BLOCK
  5
261B
330
2619
100
AcDbEntity
  8
0
100
AcDbBlockBegin
  2
Copyright00
 70
     0
 10
0.0
 20
0.0
 30
0.0
  3
Copyright00
  1

  0
MTEXT
  5
261A
330
2619
100
AcDbEntity
  8
BORDER
100
AcDbMText
 10
0.0258733304183885
 20
0.323044704881891
 30
0.0
 40
0.25
 41
9.340999999999999
 71
     1
 72
     5
  1
\fVerdana|b0|i0|c0|p34;COPYRIGHT \fSymbol|b0|i0|c2|p18;\H0.3;Ó\fVerdana|b0|i0|c0|p34;\H0.25; 2000 by THORLABS INC.
 73
     1
 44
1.0
  0
ENDBLK
  5
261C
330
2619
100
AcDbEntity
  8
0
100
AcDbBlockEnd
  0
BLOCK
  5
2624
330
2620
100
AcDbEntity
  8
0
100
AcDbBlockBegin
  2
Esd-info
 70
     0
 10
0.0
 20
0.0
 30
0.0
  3
Esd-info
  1

  0
LINE
  5
2621
330
2620
100
AcDbEntity
  8
D1
100
AcDbLine
 10
2.98789804994233
 20
0.0002966651217227
 30
0.0
 11
-2.987323406216175
 21
0.0002966651217227
 31
0.0
  0
LINE
  5
2622
330
2620
100
AcDbEntity
  8
D1
100
AcDbLine
 10
-2.892290062977073
 20
0.0596366990926454
 30
0.0
 11
2.892864706703228
 21
0.0596366990926454
 31
0.0
  0
TEXT
  5
2623
330
2620
100
AcDbEntity
  8
D1
100
AcDbText
 10
-2.79456480303434
 20
0.1065187961070997
 30
0.0
 40
0.15
  1
INFORMATION ONLY, NOT FOR MANUFACTURING
100
AcDbText
  0
ENDBLK
  5
2625
330
2620
100
AcDbEntity
  8
0
100
AcDbBlockEnd
  0
ENDSEC
  0
SECTION
  2
ENTITIES
  0
INSERT
  5
69F
330
18
100
AcDbEntity
  8
BODY
100
AcDbBlockReference
  2
BNC-SIDE
 10
8.931575411326859
 20
12.80782063784503
 30
0.0
 50
180.0
1001
ACAD
1000
ASC_BOUNDS
1002
{
1070
    19
1002
}
  0
INSERT
  5
6C6
330
18
100
AcDbEntity
  8
BODY
100
AcDbBlockReference
  2
TOGGLE-SIDE
 10
8.994075411326862
 20
12.13382063784504
 30
0.0
1001
ACAD
1000
ASC_BOUNDS
1002
{
1070
    19
1002
}
  0
LWPOLYLINE
  5
6C9
330
18
100
AcDbEntity
  8
BODY
100
AcDbPolyline
 90
        4
 70
     1
 43
0.0
 10
9.407066548916676
 20
12.33782063784503
 10
9.407066548916676
 20
12.68782063784503
 10
9.532066548916676
 20
12.68782063784503
 10
9.532066548916676
 20
12.33782063784503
  0
LINE
  5
72A
330
18
100
AcDbEntity
  8
BODY
100
AcDbLine
 10
9.532066548916676
 20
12.33382063784503
 30
0.0
 11
9.532066548916676
 21
12.69182063784503
 31
0.0
  0
LINE
  5
72B
330
18
100
AcDbEntity
  8
BODY
100
AcDbLine
 10
9.552066548916675
 20
12.69182063784503
 30
0.0
 11
9.552066548916675
 21
12.33382063784503
 31
0.0
  0
LINE
  5
72C
330
18
100
AcDbEntity
  8
BODY
100
AcDbLine
 10
9.693066548916677
 20
12.35332063784503
 30
0.0
 11
9.552066548916675
 21
12.35332063784503
 31
0.0
  0
LINE
  5
72D
330
18
100
AcDbEntity
  8
BODY
100
AcDbLine
 10
9.552066548916675
 20
12.67232063784504
 30
0.0
 11
9.693066548916677
 21
12.67232063784504
 31
0.0
  0
LINE
  5
72E
330
18
100
AcDbEntity
  8
BODY
100
AcDbLine
 10
9.532066548916676
 20
12.69182063784503
 30
0.0
 11
9.552066548916675
 21
12.69182063784503
 31
0.0
  0
LINE
  5
72F
330
18
100
AcDbEntity
  8
BODY
100
AcDbLine
 10
9.552066548916675
 20
12.35332063784503
 30
0.0
 11
9.552066548916675
 21
12.67232063784504
 31
0.0
  0
LINE
  5
730
330
18
100
AcDbEntity
  8
BODY
100
AcDbLine
 10
9.621996384982637
 20
12.58382063784504
 30
0.0
 11
9.621996384982635
 21
12.44182063784504
 31
0.0
  0
LINE
  5
731
330
18
100
AcDbEntity
  8
BODY
100
AcDbLine
 10
9.642066548916677
 20
12.44182063784504
 30
0.0
 11
9.642066548916673
 21
12.58382063784504
 31
0.0
  0
LINE
  5
732
330
18
100
AcDbEntity
  8
BODY
100
AcDbLine
 10
9.693066548916677
 20
12.67232063784504
 30
0.0
 11
9.693066548916677
 21
12.35332063784503
 31
0.0
  0
LINE
  5
733
330
18
100
AcDbEntity
  8
BODY
100
AcDbLine
 10
9.642066548916675
 20
12.58382063784504
 30
0.0
 11
9.621996384982635
 21
12.58382063784504
 31
0.0
  0
LINE
  5
734
330
18
100
AcDbEntity
  8
BODY
100
AcDbLine
 10
9.642066548916675
 20
12.44182063784504
 30
0.0
 11
9.621996384982635
 21
12.44182063784504
 31
0.0
  0
LINE
  5
736
330
18
100
AcDbEntity
  8
BODY
100
AcDbLine
 10
9.312495738609065
 20
12.40382063784504
 30
0.0
 11
9.312495738609063
 21
12.42182063784503
 31
0.0
  0
LWPOLYLINE
  5
737
330
18
100
AcDbEntity
  8
BODY
100
AcDbPolyline
 90
        4
 70
     0
 43
0.0
 10
9.312495738609065
 20
12.42182063784503
 10
9.532066548916676
 20
12.42182063784504
 10
9.532066548916676
 20
12.40382063784503
 10
9.312495738609065
 20
12.40382063784503
  0
LWPOLYLINE
  5
73D
330
18
100
AcDbEntity
  8
BODY
100
AcDbPolyline
 90
        4
 70
     0
 43
0.0
 10
9.312495738609065
 20
12.62182063784504
 10
9.532066548916676
 20
12.62182063784504
 10
9.532066548916676
 20
12.60382063784503
 10
9.312495738609065
 20
12.60382063784503
  0
LINE
  5
743
330
18
100
AcDbEntity
  8
BODY
100
AcDbLine
 10
9.312495738609063
 20
12.60382063784503
 30
0.0
 11
9.312495738609065
 21
12.62182063784503
 31
0.0
  0
LINE
  5
747
330
18
100
AcDbEntity
  8
0
100
AcDbLine
 10
9.554647879289476
 20
13.12532063784503
 30
0.0
 11
9.554647879289476
 21
13.01957063784505
 31
0.0
1001
ACAD
1000
ASC_BOUNDS
1002
{
1070
    19
1005
2207
1005
21DD
1002
}
  0
LINE
  5
748
330
18
100
AcDbEntity
  8
0
100
AcDbLine
 10
9.504647879289475
 20
13.12682063784504
 30
0.0
 11
9.504647879289475
 21
12.95782063784504
 31
0.0
1001
ACAD
1000
ASC_BOUNDS
1002
{
1070
    19
1005
2207
1005
21DD
1002
}
  0
LINE
  5
750
330
18
100
AcDbEntity
  8
BODY
100
AcDbLine
 10
8.931575411326861
 20
11.76282063784503
 30
0.0
 11
8.931575411326857
 21
13.26282063784503
 31
0.0
1001
ACAD
1000
ASC_BOUNDS
1002
{
1070
    19
1002
}
  0
LINE
  5
751
330
18
100
AcDbEntity
  8
BODY
100
AcDbLine
 10
8.994075411326862
 20
11.76282063784503
 30
0.0
 11
8.994075411326859
 21
13.26282063784503
 31
0.0
1001
ACAD
1000
ASC_BOUNDS
1002
{
1070
    19
1002
}
  0
LWPOLYLINE
  5
754
330
18
100
AcDbEntity
  8
BODY
100
AcDbPolyline
 90
        4
 70
     1
 43
0.0
 10
8.888575411326861
 20
11.97532063784503
 10
8.888575411326861
 20
12.29232063784504
 10
8.931575411326861
 20
12.29232063784504
 10
8.931575411326861
 20
11.97532063784503
1001
ACAD
1000
ASC_BOUNDS
1002
{
1070
    19
1002
}
  0
LINE
  5
75E
330
18
100
AcDbEntity
  8
0
100
AcDbLine
 10
9.554647879289476
 20
13.12532063784503
 30
0.0
 11
9.503085379289476
 21
13.26282063784503
 31
0.0
1001
ACAD
1000
ASC_BOUNDS
1002
{
1070
    19
1005
2207
1005
21DD
1002
}
  0
CIRCLE
  5
76C
330
18
100
AcDbEntity
  8
BODY
100
AcDbCircle
 10
14.32722580373597
 20
12.50782063784503
 30
0.0
 40
0.1595000000000013
  0
CIRCLE
  5
773
330
18
100
AcDbEntity
  8
BODY
100
AcDbCircle
 10
14.32722580373597
 20
12.50782063784503
 30
0.0
 40
0.1276511839897907
  0
LWPOLYLINE
  5
774
330
18
100
AcDbEntity
  8
BODY
100
AcDbPolyline
 90
        4
 70
     1
 43
0.0
 10
14.25622580373597
 20
12.43682063784504
 10
14.25622580373597
 20
12.57882063784504
 10
14.39822580373597
 20
12.57882063784504
 10
14.39822580373597
 20
12.43682063784504
  0
LWPOLYLINE
  5
907
330
18
100
AcDbEntity
  8
BODY
100
AcDbPolyline
 90
        4
 70
     1
 43
0.0
 10
8.994075411326861
 20
12.52282063784504
 10
8.994075411326861
 20
13.09282063784503
 10
9.09407541132686
 20
13.09282063784503
 10
9.09407541132686
 20
12.52282063784504
  0
LINE
  5
11DA
330
18
100
AcDbEntity
  8
0
100
AcDbLine
 10
9.181575411326861
 20
13.21782063784504
 30
0.0
 11
8.994075411326859
 21
13.21782063784504
 31
0.0
  0
LINE
  5
11DB
330
18
100
AcDbEntity
  8
0
100
AcDbLine
 10
9.181575411326861
 20
13.15182063784504
 30
0.0
 11
8.994075411326859
 21
13.15182063784504
 31
0.0
  0
LINE
  5
11DC
330
18
100
AcDbEntity
  8
0
  6
HIDDEN
100
AcDbLine
 10
9.181575411326861
 20
13.22782063784504
 30
0.0
 11
8.994075411326859
 21
13.22782063784504
 31
0.0
1001
ACAD
1000
ASC_BOUNDS
1002
{
1070
    19
1005
2207
1005
21DD
1002
}
  0
LINE
  5
11DD
330
18
100
AcDbEntity
  8
0
  6
HIDDEN
100
AcDbLine
 10
9.181575411326861
 20
13.14182063784504
 30
0.0
 11
8.994075411326859
 21
13.14182063784504
 31
0.0
1001
ACAD
1000
ASC_BOUNDS
1002
{
1070
    19
1005
2207
1005
21DD
1002
}
  0
LINE
  5
125A
330
18
100
AcDbEntity
  8
0
100
AcDbLine
 39
0.18
 10
9.647004343514995
 20
13.01664170565691
 30
0.0
 11
9.644075411326864
 21
13.01957063784504
 31
0.0
  0
LINE
  5
125B
330
18
100
AcDbEntity
  8
0
100
AcDbLine
 39
0.18
 10
9.554647879289476
 20
13.01957063784504
 30
0.0
 11
9.56504018413489
 21
13.00157063784504
 31
0.0
1001
ACAD
1000
ASC_BOUNDS
1002
{
1070
    19
1005
2207
1005
21DD
1002
}
  0
LINE
  5
125C
330
18
100
AcDbEntity
  8
0
100
AcDbLine
 39
0.18
 10
9.584647879289477
 20
13.01957063784504
 30
0.0
 11
9.574255574444062
 21
13.00157063784504
 31
0.0
1001
ACAD
1000
ASC_BOUNDS
1002
{
1070
    19
1005
2207
1005
21DD
1002
}
  0
LINE
  5
125D
330
18
100
AcDbEntity
  8
0
100
AcDbLine
 39
0.18
 10
9.56504018413489
 20
13.00157063784504
 30
0.0
 11
9.574255574444062
 21
13.00157063784504
 31
0.0
1001
ACAD
1000
ASC_BOUNDS
1002
{
1070
    19
1005
2207
1005
21DD
1002
}
  0
LINE
  5
1260
330
18
100
AcDbEntity
  8
0
  6
Continuous
100
AcDbLine
 39
0.18
 10
9.644075411326864
 20
13.01957063784504
 30
0.0
 11
9.584647879289475
 21
13.01957063784504
 31
0.0
  0
LINE
  5
1263
330
18
100
AcDbEntity
  8
0
  6
HIDDEN
100
AcDbLine
 39
0.18
 10
9.575987625251631
 20
13.00457063784504
 30
0.0
 11
9.652004343514995
 21
13.00457063784504
 31
0.0
1001
ACAD
1000
ASC_BOUNDS
1002
{
1070
    19
1005
2207
1005
21DD
1002
}
  0
LINE
  5
1370
330
18
100
AcDbEntity
  8
D1
  6
CENTER
100
AcDbLine
 10
9.244075411326862
 20
12.09193513620479
 30
0.0
 11
9.244075411326861
 21
11.56893992310972
 31
0.0
1001
ACAD
1000
ASC_BOUNDS
1002
{
1070
    19
1002
}
  0
LINE
  5
1371
330
18
100
AcDbEntity
  8
0
100
AcDbLine
 10
9.30907541132686
 20
11.89882063784503
 30
0.0
 11
9.30907541132686
 21
11.76282063784503
 31
0.0
1001
ACAD
1000
ASC_BOUNDS
1002
{
1070
    19
1002
}
  0
LINE
  5
1372
330
18
100
AcDbEntity
  8
0
100
AcDbLine
 10
9.179075411326861
 20
11.89882063784503
 30
0.0
 11
9.179075411326861
 21
11.76282063784503
 31
0.0
1001
ACAD
1000
ASC_BOUNDS
1002
{
1070
    19
1002
}
  0
LINE
  5
1373
330
18
100
AcDbEntity
  8
0
  6
HIDDEN
100
AcDbLine
 10
9.326075411326863
 20
11.89882063784503
 30
0.0
 11
9.326075411326863
 21
11.76282063784503
 31
0.0
1001
ACAD
1000
ASC_BOUNDS
1002
{
1070
    19
1005
21DD
1005
2369
1002
}
  0
LINE
  5
1374
330
18
100
AcDbEntity
  8
0
  6
HIDDEN
100
AcDbLine
 10
9.16207541132686
 20
11.89882063784503
 30
0.0
 11
9.162075411326862
 21
11.76282063784503
 31
0.0
1001
ACAD
1000
ASC_BOUNDS
1002
{
1070
    19
1005
21DD
1002
}
  0
CIRCLE
  5
14A2
330
18
100
AcDbEntity
  8
0
100
AcDbCircle
 10
6.92027407757862
 20
13.18482063784504
 30
0.0
 40
0.03335
  0
CIRCLE
  5
14A3
330
18
100
AcDbEntity
  8
0
100
AcDbCircle
 10
6.92027407757862
 20
13.18482063784504
 30
0.0
 40
0.043
  0
ARC
  5
14A8
330
18
100
AcDbEntity
  8
0
100
AcDbCircle
 10
6.92027407757862
 20
12.50782063784504
 30
0.0
 40
0.75
100
AcDbArc
 50
279.3667888843499
 51
260.6332111156502
  0
CIRCLE
  5
14CD
330
18
100
AcDbEntity
  8
0
100
AcDbCircle
 10
14.32722580373597
 20
12.50782063784503
 30
0.0
 40
0.1937500000000032
  0
CIRCLE
  5
14D2
330
18
100
AcDbEntity
  8
0
  6
HIDDEN
100
AcDbCircle
 10
14.32722580373597
 20
12.50782063784503
 30
0.0
 40
0.4967500000000058
  0
CIRCLE
  5
14D3
330
18
100
AcDbEntity
  8
0
100
AcDbCircle
 10
14.32722580373597
 20
12.50782063784503
 30
0.0
 40
0.5117500000000064
  0
CIRCLE
  5
14D4
330
18
100
AcDbEntity
  8
0
100
AcDbCircle
 10
14.32722580373597
 20
12.50782063784503
 30
0.0
 40
0.6125000000000043
  0
LINE
  5
14D7
330
18
100
AcDbEntity
  8
0
100
AcDbLine
 10
14.44929135989331
 20
11.76782063784503
 30
0.0
 11
14.20516024757861
 21
11.76782063784503
 31
0.0
  0
LINE
  5
14DA
330
18
100
AcDbEntity
  8
0
100
AcDbLine
 10
9.644075411326861
 20
12.68182063784504
 30
0.0
 11
9.654075411326861
 21
12.69182063784503
 31
0.0
1001
ACAD
1000
ASC_BOUNDS
1002
{
1070
    19
1005
2207
1005
21DD
1002
}
  0
LINE
  5
14DC
330
18
100
AcDbEntity
  8
0
100
AcDbLine
 10
9.647004343514995
 20
13.01664170565691
 30
0.0
 11
9.654075411326861
 21
12.99957063784505
 31
0.0
1001
ACAD
1000
ASC_BOUNDS
1002
{
1070
    19
1005
2207
1005
21DD
1002
}
  0
LINE
  5
14DF
330
18
100
AcDbEntity
  8
0
100
AcDbLine
 10
7.042339633735934
 20
11.76782063784503
 30
0.0
 11
6.798208521421304
 21
11.76782063784503
 31
0.0
  0
CIRCLE
  5
14E0
330
18
100
AcDbEntity
  8
0
100
AcDbCircle
 10
6.333974879216553
 20
12.16932063784504
 30
0.0
 40
0.043
  0
CIRCLE
  5
14E1
330
18
100
AcDbEntity
  8
0
100
AcDbCircle
 10
6.333974879216553
 20
12.16932063784504
 30
0.0
 40
0.03335
  0
CIRCLE
  5
14E2
330
18
100
AcDbEntity
  8
0
100
AcDbCircle
 10
7.506573275940684
 20
12.16932063784503
 30
0.0
 40
0.043
  0
CIRCLE
  5
14E3
330
18
100
AcDbEntity
  8
0
100
AcDbCircle
 10
7.506573275940684
 20
12.16932063784503
 30
0.0
 40
0.03335
  0
LINE
  5
1581
330
18
100
AcDbEntity
  8
0
  6
HIDDEN
100
AcDbLine
 10
6.838274077578621
 20
11.89932084326824
 30
0.0
 11
6.838274077578619
 21
11.76782063784503
 31
0.0
1001
ACAD
1000
ASC_BOUNDS
1002
{
1070
    19
1002
}
  0
LINE
  5
1582
330
18
100
AcDbEntity
  8
0
  6
HIDDEN
100
AcDbLine
 10
7.002274077578623
 20
11.89932084326824
 30
0.0
 11
7.002274077578622
 21
11.76782063784503
 31
0.0
1001
ACAD
1000
ASC_BOUNDS
1002
{
1070
    19
1002
}
  0
LINE
  5
1583
330
18
100
AcDbEntity
  8
0
100
AcDbLine
 10
6.85527407757862
 20
11.89727088557254
 30
0.0
 11
6.85527407757862
 21
11.76782063784503
 31
0.0
1001
ACAD
1000
ASC_BOUNDS
1002
{
1070
    19
1002
}
  0
LINE
  5
1584
330
18
100
AcDbEntity
  8
0
100
AcDbLine
 10
6.98527407757862
 20
11.89727088557254
 30
0.0
 11
6.985274077578619
 21
11.76782063784503
 31
0.0
1001
ACAD
1000
ASC_BOUNDS
1002
{
1070
    19
1002
}
  0
LINE
  5
15A5
330
18
100
AcDbEntity
  8
0
  6
HIDDEN
100
AcDbLine
 39
0.18
 10
9.575987625251631
 20
12.01107063784503
 30
0.0
 11
9.652004343514995
 21
12.01107063784503
 31
0.0
1001
ACAD
1000
ASC_BOUNDS
1002
{
1070
    19
1005
21DD
1005
2369
1002
}
  0
LINE
  5
15A6
330
18
100
AcDbEntity
  8
0
100
AcDbLine
 39
0.18
 10
9.584647879289477
 20
11.99607063784503
 30
0.0
 11
9.574255574444062
 21
12.01407063784503
 31
0.0
1001
ACAD
1000
ASC_BOUNDS
1002
{
1070
    19
1002
}
  0
LINE
  5
15A7
330
18
100
AcDbEntity
  8
0
100
AcDbLine
 39
0.18
 10
9.56504018413489
 20
12.01407063784503
 30
0.0
 11
9.574255574444062
 21
12.01407063784503
 31
0.0
1001
ACAD
1000
ASC_BOUNDS
1002
{
1070
    19
1005
21DD
1005
2369
1002
}
  0
LINE
  5
15A8
330
18
100
AcDbEntity
  8
0
100
AcDbLine
 39
0.18
 10
9.554647879289476
 20
11.99607063784503
 30
0.0
 11
9.56504018413489
 21
12.01407063784503
 31
0.0
1001
ACAD
1000
ASC_BOUNDS
1002
{
1070
    19
1005
21DD
1005
2369
1002
}
  0
LINE
  5
15A9
330
18
100
AcDbEntity
  8
0
100
AcDbLine
 39
0.18
 10
9.647004343514995
 20
11.99899957003316
 30
0.0
 11
9.644075411326864
 21
11.99607063784503
 31
0.0
  0
LINE
  5
15AA
330
18
100
AcDbEntity
  8
0
  6
Continuous
100
AcDbLine
 39
0.18
 10
9.644075411326864
 20
11.99607063784503
 30
0.0
 11
9.584647879289475
 21
11.99607063784503
 31
0.0
  0
LINE
  5
15AC
330
18
100
AcDbEntity
  8
0
100
AcDbLine
 10
9.554647879289474
 20
11.89032063784503
 30
0.0
 11
9.506835379289476
 21
11.76282063784503
 31
0.0
1001
ACAD
1000
ASC_BOUNDS
1002
{
1070
    19
1005
21DD
1005
2369
1002
}
  0
LINE
  5
15AF
330
18
100
AcDbEntity
  8
0
100
AcDbLine
 10
9.644075411326861
 20
12.34382063784503
 30
0.0
 11
9.654075411326861
 21
12.33382063784503
 31
0.0
1001
ACAD
1000
ASC_BOUNDS
1002
{
1070
    19
1005
21DD
1005
2369
1002
}
  0
LINE
  5
15B2
330
18
100
AcDbEntity
  8
0
100
AcDbLine
 10
9.504647879289475
 20
11.89882063784503
 30
0.0
 11
9.504647879289475
 21
12.06782063784504
 31
0.0
1001
ACAD
1000
ASC_BOUNDS
1002
{
1070
    19
1005
21DD
1005
2369
1002
}
  0
LINE
  5
15B4
330
18
100
AcDbEntity
  8
0
100
AcDbLine
 10
9.554647879289474
 20
11.89032063784503
 30
0.0
 11
9.554647879289476
 21
11.99607063784503
 31
0.0
1001
ACAD
1000
ASC_BOUNDS
1002
{
1070
    19
1005
21DD
1005
2369
1002
}
  0
LINE
  5
15B5
330
18
100
AcDbEntity
  8
0
100
AcDbLine
 10
9.647004343514995
 20
11.99899957003316
 30
0.0
 11
9.654075411326861
 21
12.01607063784502
 31
0.0
1001
ACAD
1000
ASC_BOUNDS
1002
{
1070
    19
1005
21DD
1005
2369
1002
}
  0
LINE
  5
15BA
330
18
100
AcDbEntity
  8
0
100
AcDbLine
 10
9.570647879289477
 20
12.95782063784504
 30
0.0
 11
9.570647879289477
 21
12.67232063784504
 31
0.0
1001
ACAD
1000
ASC_BOUNDS
1002
{
1070
    19
1005
0
1005
2207
1005
21DD
1005
21DD
1002
}
  0
ARC
  5
15C8
330
18
100
AcDbEntity
  8
0
100
AcDbCircle
 10
14.32722580373597
 20
12.50782063784503
 30
0.0
 40
0.75
100
AcDbArc
 50
279.3667888843515
 51
260.6332111156484
  0
LINE
  5
15C9
330
18
100
AcDbEntity
  8
0
100
AcDbLine
 10
9.506835379289476
 20
11.76282063784503
 30
0.0
 11
8.994075411326861
 21
11.76282063784503
 31
0.0
1001
ACAD
1000
ASC_BOUNDS
1002
{
1070
    19
1005
0
1005
21DD
1005
21DD
1005
2369
1002
}
  0
LINE
  5
1731
330
18
100
AcDbEntity
  8
D1
100
AcDbLine
 10
8.994075411326861
 20
11.74282063784503
 30
0.0
 11
8.994075411326861
 21
11.40013140790816
 31
0.0
  0
LINE
  5
1732
330
18
100
AcDbEntity
  8
D1
100
AcDbLine
 10
9.244075411326861
 20
11.54393992310972
 30
0.0
 11
9.244075411326861
 21
11.40013140790816
 31
0.0
  0
LINE
  5
1733
330
18
100
AcDbEntity
  8
D1
100
AcDbLine
 10
8.894075411326861
 20
11.42413140790816
 30
0.0
 11
8.794075411326861
 21
11.42413140790816
 31
0.0
  0
LINE
  5
1734
330
18
100
AcDbEntity
  8
D1
100
AcDbLine
 10
9.34407541132686
 20
11.42413140790816
 30
0.0
 11
9.44407541132686
 21
11.42413140790816
 31
0.0
  0
SOLID
  5
1735
330
18
100
AcDbEntity
  8
D1
100
AcDbTrace
 10
8.894075411326861
 20
11.44079807457483
 30
0.0
 11
8.894075411326861
 21
11.40746474124149
 31
0.0
 12
8.994075411326861
 22
11.42413140790816
 32
0.0
 13
8.994075411326861
 23
11.42413140790816
 33
0.0
  0
SOLID
  5
1736
330
18
100
AcDbEntity
  8
D1
100
AcDbTrace
 10
9.34407541132686
 20
11.44079807457483
 30
0.0
 11
9.34407541132686
 21
11.40746474124149
 31
0.0
 12
9.244075411326861
 22
11.42413140790816
 32
0.0
 13
9.244075411326861
 23
11.42413140790816
 33
0.0
  0
MTEXT
  5
1737
330
18
100
AcDbEntity
  8
D1
100
AcDbMText
 10
8.564608825899538
 20
11.42413140790816
 30
0.0
 40
0.08
 41
0.0
 71
     5
 72
     5
  1
\A1;0.250
 73
     1
 44
1.0
  0
SOLID
  5
17FB
330
18
100
AcDbEntity
  8
D1
100
AcDbTrace
 10
14.60788934271226
 20
13.33275594555516
 30
0.0
 11
14.57899607868232
 21
13.34937793114075
 31
0.0
 12
14.54357675394052
 22
13.25438714625815
 32
0.0
 13
14.54357675394052
 23
13.25438714625815
 33
0.0
  0
LINE
  5
17FC
330
18
100
AcDbEntity
  8
D1
100
AcDbLine
 10
14.59344271069729
 20
13.34106693834796
 30
0.0
 11
14.72017578833743
 21
13.56136145459138
 31
0.0
  0
LINE
  5
17FD
330
18
100
AcDbEntity
  8
D1
100
AcDbLine
 10
14.72017578833743
 20
13.56136145459138
 30
0.0
 11
14.82017578833743
 21
13.56136145459138
 31
0.0
  0
MTEXT
  5
17FE
330
18
100
AcDbEntity
  8
D1
100
AcDbMText
 10
14.85617578833744
 20
13.56136145459138
 30
0.0
 40
0.08
 41
0.0
 71
     4
 72
     5
  1
{%%c1.5}{" DIA.}
 73
     1
 44
1.0
  0
LINE
  5
17FF
330
18
100
AcDbEntity
  8
D1
100
AcDbLine
 10
14.29122580373597
 20
12.50782063784503
 30
0.0
 11
14.36322580373597
 21
12.50782063784503
 31
0.0
  0
LINE
  5
1800
330
18
100
AcDbEntity
  8
D1
100
AcDbLine
 10
14.32722580373597
 20
12.47182063784504
 30
0.0
 11
14.32722580373597
 21
12.54382063784504
 31
0.0
  0
LINE
  5
1801
330
18
100
AcDbEntity
  8
D1
100
AcDbLine
 10
14.38822580373597
 20
12.50782063784503
 30
0.0
 11
15.35075508039641
 21
12.50782063784503
 31
0.0
  0
LINE
  5
1802
330
18
100
AcDbEntity
  8
D1
100
AcDbLine
 10
14.47429135989331
 20
11.76782063784503
 30
0.0
 11
15.35075508039641
 21
11.76782063784503
 31
0.0
  0
LINE
  5
1803
330
18
100
AcDbEntity
  8
D1
100
AcDbLine
 10
15.32675508039641
 20
12.40782063784504
 30
0.0
 11
15.32675508039641
 21
12.21382063784504
 31
0.0
  0
LINE
  5
1804
330
18
100
AcDbEntity
  8
D1
100
AcDbLine
 10
15.32675508039641
 20
11.86782063784503
 30
0.0
 11
15.32675508039641
 21
12.06182063784503
 31
0.0
  0
SOLID
  5
1805
330
18
100
AcDbEntity
  8
D1
100
AcDbTrace
 10
15.31008841372974
 20
12.40782063784504
 30
0.0
 11
15.34342174706307
 21
12.40782063784504
 31
0.0
 12
15.32675508039641
 22
12.50782063784503
 32
0.0
 13
15.32675508039641
 23
12.50782063784503
 33
0.0
  0
SOLID
  5
1806
330
18
100
AcDbEntity
  8
D1
100
AcDbTrace
 10
15.31008841372974
 20
11.86782063784503
 30
0.0
 11
15.34342174706307
 21
11.86782063784503
 31
0.0
 12
15.32675508039641
 22
11.76782063784503
 32
0.0
 13
15.32675508039641
 23
11.76782063784503
 33
0.0
  0
MTEXT
  5
1807
330
18
100
AcDbEntity
  8
D1
100
AcDbMText
 10
15.32675508039641
 20
12.13782063784504
 30
0.0
 40
0.08
 41
0.0
 71
     5
 72
     5
  1
\A1;0.740
 73
     1
 44
1.0
  0
MTEXT
  5
181B
330
18
100
AcDbEntity
  8
D1
100
AcDbMText
 10
10.05083468380614
 20
11.31005559526888
 30
0.0
 40
0.08
 41
0.0
 71
     4
 72
     5
  1
{1.035-40}\P{THREAD}
 73
     1
 44
1.0
  0
SOLID
  5
182E
330
18
100
AcDbEntity
  8
D1
100
AcDbTrace
 10
9.329169072534451
 20
11.6334196787842
 30
0.0
 11
9.356369389879034
 21
11.65268762749352
 31
0.0
 12
9.28496538507877
 22
11.72465460517261
 32
0.0
 13
9.28496538507877
 23
11.72465460517261
 33
0.0
  0
LINE
  5
182F
330
18
100
AcDbEntity
  8
D1
100
AcDbLine
 10
9.342769231206743
 20
11.64305365313886
 30
0.0
 11
9.790233355946552
 21
11.01170820580585
 31
0.0
  0
LINE
  5
1830
330
18
100
AcDbEntity
  8
D1
100
AcDbLine
 10
9.790233355946552
 20
11.01170820580585
 30
0.0
 11
9.89023335594655
 21
11.01170820580585
 31
0.0
  0
LINE
  5
1835
330
18
100
AcDbEntity
  8
0
100
AcDbLine
 10
9.654075411326862
 20
12.01607063784503
 30
0.0
 11
9.654075411326861
 21
12.35332063784503
 31
0.0
1001
ACAD
1000
ASC_BOUNDS
1002
{
1070
    19
1005
0
1005
21DD
1005
21DD
1005
2369
1002
}
  0
LINE
  5
183A
330
18
100
AcDbEntity
  8
0
100
AcDbLine
 10
9.181575411326861
 20
13.14182063784504
 30
0.0
 11
9.181575411326861
 21
13.22782063784504
 31
0.0
1001
ACAD
1000
ASC_BOUNDS
1002
{
1070
    19
1005
2207
1005
21DD
1002
}
  0
TEXT
  5
1864
330
18
100
AcDbEntity
  8
D1
100
AcDbText
 10
9.918230808436847
 20
10.9757074674232
 30
0.0
 40
0.08
  1
#8-32 TAP THRU
100
AcDbText
  0
LWPOLYLINE
  5
187F
330
18
100
AcDbEntity
  8
BODY
100
AcDbPolyline
 90
        4
 70
     1
 43
0.0
 10
9.16342541132686
 20
11.76782063784503
 10
9.16342541132686
 20
11.99782063784503
 10
9.324725411326861
 20
11.99782063784503
 10
9.324725411326861
 20
11.76782063784503
  0
LINE
  5
188D
330
18
100
AcDbEntity
  8
0
100
AcDbLine
 10
8.994075411326861
 20
13.26282063784504
 30
0.0
 11
9.503085379289476
 21
13.26282063784503
 31
0.0
1001
ACAD
1000
ASC_BOUNDS
1002
{
1070
    19
1005
2207
1005
21DD
1002
}
  0
LINE
  5
1893
330
18
100
AcDbEntity
  8
0
100
AcDbLine
 10
8.994075411326859
 20
13.12682063784504
 30
0.0
 11
9.504647879289473
 21
13.12682063784504
 31
0.0
1001
ACAD
1000
ASC_BOUNDS
1002
{
1070
    19
1005
2207
1005
21DD
1002
}
  0
LINE
  5
1894
330
18
100
AcDbEntity
  8
0
100
AcDbLine
 10
8.994075411326861
 20
11.89882063784503
 30
0.0
 11
9.504647879289475
 21
11.89882063784503
 31
0.0
1001
ACAD
1000
ASC_BOUNDS
1002
{
1070
    19
1005
0
1005
21DD
1005
21DD
1005
2369
1002
}
  0
LINE
  5
1895
330
18
100
AcDbEntity
  8
0
100
AcDbLine
 10
9.504647879289475
 20
12.95782063784503
 30
0.0
 11
9.570647879289479
 21
12.95782063784504
 31
0.0
1001
ACAD
1000
ASC_BOUNDS
1002
{
1070
    19
1005
2207
1005
21DD
1002
}
  0
LINE
  5
1896
330
18
100
AcDbEntity
  8
0
100
AcDbLine
 10
9.504647879289473
 20
12.06782063784503
 30
0.0
 11
9.570647879289479
 21
12.06782063784503
 31
0.0
1001
ACAD
1000
ASC_BOUNDS
1002
{
1070
    19
1005
21DD
1005
2369
1002
}
  0
LINE
  5
189B
330
18
100
AcDbEntity
  8
0
100
AcDbLine
 10
9.570647879289479
 20
12.68182063784504
 30
0.0
 11
9.644075411326863
 21
12.68182063784504
 31
0.0
1001
ACAD
1000
ASC_BOUNDS
1002
{
1070
    19
1005
2207
1005
21DD
1002
}
  0
LINE
  5
189C
330
18
100
AcDbEntity
  8
0
100
AcDbLine
 10
9.570647879289477
 20
12.34382063784503
 30
0.0
 11
9.644075411326859
 21
12.34382063784503
 31
0.0
1001
ACAD
1000
ASC_BOUNDS
1002
{
1070
    19
1005
21DD
1005
2369
1002
}
  0
LINE
  5
18A4
330
18
100
AcDbEntity
  8
BODY
100
AcDbLine
 10
9.532066548916676
 20
12.33382063784503
 30
0.0
 11
9.552066548916675
 21
12.33382063784503
 31
0.0
  0
LINE
  5
18A6
330
18
100
AcDbEntity
  8
0
100
AcDbLine
 10
8.994075411326862
 20
11.76282063784503
 30
0.0
 11
8.994075411326861
 21
13.26282063784504
 31
0.0
1001
ACAD
1000
ASC_BOUNDS
1002
{
1070
    19
1005
0
1005
2207
1005
21DD
1005
21DD
1002
}
  0
LINE
  5
18A8
330
18
100
AcDbEntity
  8
BODY
100
AcDbLine
 10
9.407066548916676
 20
13.09282063784503
 30
0.0
 11
9.344566548916677
 21
13.09282063784504
 31
0.0
  0
LINE
  5
18A9
330
18
100
AcDbEntity
  8
BODY
100
AcDbLine
 10
9.407066548916676
 20
11.93282063784503
 30
0.0
 11
9.344566548916677
 21
11.93282063784503
 31
0.0
  0
LINE
  5
18AA
330
18
100
AcDbEntity
  8
BODY
100
AcDbLine
 10
9.407066548916677
 20
11.93282063784504
 30
0.0
 11
9.407066548916677
 21
13.09282063784504
 31
0.0
  0
LINE
  5
18AB
330
18
100
AcDbEntity
  8
BODY
100
AcDbLine
 10
9.344566548916677
 20
11.93282063784504
 30
0.0
 11
9.344566548916677
 21
13.09282063784504
 31
0.0
  0
LINE
  5
18AC
330
18
100
AcDbEntity
  8
BODY
100
AcDbLine
 10
8.994075411326861
 20
13.26282063784503
 30
0.0
 11
8.931575411326859
 21
13.26282063784503
 31
0.0
1001
ACAD
1000
ASC_BOUNDS
1002
{
1070
    19
1002
}
  0
LINE
  5
18AD
330
18
100
AcDbEntity
  8
BODY
100
AcDbLine
 10
8.994075411326862
 20
11.76282063784503
 30
0.0
 11
8.931575411326861
 21
11.76282063784503
 31
0.0
1001
ACAD
1000
ASC_BOUNDS
1002
{
1070
    19
1002
}
  0
CIRCLE
  5
1C1C
330
18
100
AcDbEntity
  8
0
100
AcDbCircle
 39
0.18
 10
6.92027407757862
 20
12.09804890348303
 30
0.0
 40
0.156
  0
TEXT
  5
1C1D
330
18
100
AcDbEntity
  8
SILK-SCREEN
100
AcDbText
 10
6.397695504773903
 20
12.81033948403614
 30
0.0
 40
0.075
  1
PDA155
  7
HL-HD
100
AcDbText
  0
ARC
  5
1C1E
330
18
100
AcDbEntity
  8
0
100
AcDbCircle
 10
6.625274077578618
 20
12.50782063784504
 30
0.0
 40
0.21875
100
AcDbArc
 50
122.2514533703048
 51
57.7485466296953
  0
INSERT
  5
1C1F
330
18
100
AcDbEntity
  8
BODY
100
AcDbBlockReference
  2
BNC
 10
6.625274077578618
 20
12.50782063784504
 30
0.0
  0
LINE
  5
1C24
330
18
100
AcDbEntity
  8
0
100
AcDbLine
 10
6.508541209456565
 20
12.69282063784504
 30
0.0
 11
6.742006945700671
 21
12.69282063784504
 31
0.0
  0
INSERT
  5
1C27
330
18
100
AcDbEntity
  8
SILK-SCREEN
100
AcDbBlockReference
  2
LOGO
 10
6.617552005407064
 20
13.0125027267632
 30
0.0
 41
0.3
 42
0.3
 43
0.3
  0
CIRCLE
  5
1C28
330
18
100
AcDbEntity
  8
0
100
AcDbCircle
 10
7.506573275940684
 20
12.16932063784503
 30
0.0
 40
0.048
  0
CIRCLE
  5
1C29
330
18
100
AcDbEntity
  8
0
100
AcDbCircle
 10
7.299274077578619
 20
12.51182063784504
 30
0.0
 40
0.0955
  0
INSERT
  5
1C2A
330
18
100
AcDbEntity
  8
BODY
100
AcDbBlockReference
  2
TOGGLE-TOP
 10
7.299274077578619
 20
12.51182063784504
 30
0.0
  0
TEXT
  5
1C2B
330
18
100
AcDbEntity
  8
SILK-SCREEN
100
AcDbText
 10
7.205354728690796
 20
12.22925749815382
 30
0.0
 40
0.075
  1
OFF
  7
HL-HD
100
AcDbText
  0
TEXT
  5
1C2C
330
18
100
AcDbEntity
  8
SILK-SCREEN
100
AcDbText
 10
7.215565675887353
 20
12.70962979322296
 30
0.0
 40
0.075
  1
ON
  7
HL-HD
100
AcDbText
  0
INSERT
  5
1C2D
330
18
100
AcDbEntity
  8
SILK-SCREEN
100
AcDbBlockReference
  2
CE-MARK
 10
6.542443535230351
 20
12.10642141048816
 30
0.0
 41
0.5
 42
0.5
 43
0.5
  0
CIRCLE
  5
1C2E
330
18
100
AcDbEntity
  8
0
100
AcDbCircle
 10
6.333974879216553
 20
12.16932063784504
 30
0.0
 40
0.048
  0
CIRCLE
  5
1C2F
330
18
100
AcDbEntity
  8
0
100
AcDbCircle
 10
6.92027407757862
 20
13.18482063784504
 30
0.0
 40
0.048
  0
INSERT
  5
1FF4
330
18
100
AcDbEntity
  8
0
100
AcDbBlockReference
  2
*X8
 10
0.0
 20
0.0
 30
0.0
1001
ACAD
1000
HATCH
1002
{
1070
    19
1000
ANSI31
1040
0.2
1040
1.570796326794896
1002
}
  0
LINE
  5
2017
330
18
100
AcDbEntity
  8
0
100
AcDbLine
 10
9.654075411326859
 20
12.67232063784504
 30
0.0
 11
9.654075411326859
 21
12.99957063784505
 31
0.0
1001
ACAD
1000
ASC_BOUNDS
1002
{
1070
    19
1005
2207
1002
}
  0
LINE
  5
21CE
330
18
100
AcDbEntity
  8
0
100
AcDbLine
 10
9.570647879289477
 20
12.35332063784503
 30
0.0
 11
9.570647879289477
 21
12.06782063784503
 31
0.0
1001
ACAD
1000
ASC_BOUNDS
1002
{
1070
    19
1005
2369
1002
}
  0
INSERT
  5
21DD
330
18
100
AcDbEntity
  8
0
100
AcDbBlockReference
  2
*X9
 10
0.0
 20
0.0
 30
0.0
1001
ACAD
1000
HATCH
1002
{
1070
    19
1000
ANSI31
1040
0.2
1040
0.0
1000
ASC_BOUNDS
1070
     3
1070
     1
1070
     4
1005
1894
1005
18A6
1005
15C9
1005
1374
1070
     1
1070
    15
1005
15AF
1005
189C
1005
15BA
1005
1896
1005
15B2
1005
1894
1005
1373
1005
15C9
1005
15AC
1005
15B4
1005
15A8
1005
15A7
1005
15A5
1005
15B5
1005
1835
1070
     1
1070
    19
1005
188D
1005
18A6
1005
11DC
1005
183A
1005
11DD
1005
1893
1005
748
1005
1895
1005
15BA
1005
189B
1005
14DA
1005
1835
1005
14DC
1005
1263
1005
125C
1005
125D
1005
125B
1005
747
1005
75E
1000
ASC_SEEDPOINT
1011
9.164121367733955
1021
13.15927468143795
1031
0.0
1002
}
  0
INSERT
  5
2207
330
18
100
AcDbEntity
  8
0
100
AcDbBlockReference
  2
*X10
 10
0.0
 20
0.0
 30
0.0
1001
ACAD
1000
HATCH
1002
{
1070
    19
1000
ANSI31
1040
0.2
1040
0.0
1000
ASC_BOUNDS
1070
     1
1070
     1
1070
    19
1005
14DC
1005
1263
1005
125C
1005
125D
1005
125B
1005
747
1005
75E
1005
188D
1005
18A6
1005
11DC
1005
183A
1005
11DD
1005
1893
1005
748
1005
1895
1005
15BA
1005
189B
1005
14DA
1005
2017
1000
ASC_SEEDPOINT
1011
9.510262410936192
1021
13.15186233404691
1031
0.0
1002
}
  0
INSERT
  5
2369
330
18
100
AcDbEntity
  8
0
100
AcDbBlockReference
  2
*X11
 10
0.0
 20
0.0
 30
0.0
1001
ACAD
1000
HATCH
1002
{
1070
    19
1000
ANSI31
1040
0.2
1040
0.0
1000
ASC_BOUNDS
1070
     1
1070
     1
1070
    15
1005
15AF
1005
189C
1005
21CE
1005
1896
1005
15B2
1005
1894
1005
1373
1005
15C9
1005
15AC
1005
15B4
1005
15A8
1005
15A7
1005
15A5
1005
15B5
1005
1835
1000
ASC_SEEDPOINT
1011
9.612584913908051
1021
12.15390451696691
1031
0.0
1002
}
  0
LINE
  5
2393
330
18
100
AcDbEntity
  8
0
100
AcDbLine
 10
12.88632112729301
 20
11.89032063784503
 30
0.0
 11
12.83850862729301
 21
11.76282063784503
 31
0.0
1001
ACAD
1000
ASC_BOUNDS
1002
{
1070
    19
1002
}
  0
LINE
  5
2396
330
18
100
AcDbEntity
  8
0
100
AcDbLine
 10
12.32574865933039
 20
11.76282063784503
 30
0.0
 11
12.32574865933039
 21
13.26282063784504
 31
0.0
1001
ACAD
1000
ASC_BOUNDS
1002
{
1070
    19
1002
}
  0
LINE
  5
2397
330
18
100
AcDbEntity
  8
BODY
100
AcDbLine
 10
12.26324865933039
 20
11.76282063784503
 30
0.0
 11
12.26324865933039
 21
13.26282063784503
 31
0.0
1001
ACAD
1000
ASC_BOUNDS
1002
{
1070
    19
1002
}
  0
LINE
  5
23A2
330
18
100
AcDbEntity
  8
BODY
100
AcDbLine
 10
12.32574865933039
 20
11.76282063784503
 30
0.0
 11
12.32574865933039
 21
13.26282063784503
 31
0.0
1001
ACAD
1000
ASC_BOUNDS
1002
{
1070
    19
1002
}
  0
LINE
  5
23A3
330
18
100
AcDbEntity
  8
0
100
AcDbLine
 10
12.83850862729301
 20
11.76282063784503
 30
0.0
 11
12.32574865933039
 21
11.76282063784503
 31
0.0
1001
ACAD
1000
ASC_BOUNDS
1002
{
1070
    19
1002
}
  0
LINE
  5
23A4
330
18
100
AcDbEntity
  8
BODY
100
AcDbLine
 10
12.32574865933039
 20
11.76282063784503
 30
0.0
 11
12.26324865933039
 21
11.76282063784503
 31
0.0
1001
ACAD
1000
ASC_BOUNDS
1002
{
1070
    19
1002
}
  0
LWPOLYLINE
  5
23B0
330
18
100
AcDbEntity
  8
BODY
100
AcDbPolyline
 90
        4
 70
     1
 43
0.0
 10
12.22024865933039
 20
11.97532063784503
 10
12.22024865933039
 20
12.29232063784504
 10
12.26324865933039
 20
12.29232063784504
 10
12.26324865933039
 20
11.97532063784503
1001
ACAD
1000
ASC_BOUNDS
1002
{
1070
    19
1002
}
  0
LINE
  5
23E6
330
18
100
AcDbEntity
  8
0
100
AcDbLine
 10
12.32574865933039
 20
13.26282063784504
 30
0.0
 11
12.83475862729301
 21
13.26282063784503
 31
0.0
1001
ACAD
1000
ASC_BOUNDS
1002
{
1070
    19
1002
}
  0
LINE
  5
23EC
330
18
100
AcDbEntity
  8
BODY
100
AcDbLine
 10
12.32574865933039
 20
13.26282063784503
 30
0.0
 11
12.26324865933039
 21
13.26282063784503
 31
0.0
1001
ACAD
1000
ASC_BOUNDS
1002
{
1070
    19
1002
}
  0
LINE
  5
23EF
330
18
100
AcDbEntity
  8
0
100
AcDbLine
 10
12.88632112729301
 20
13.12532063784503
 30
0.0
 11
12.88632112729301
 21
11.89032063784503
 31
0.0
1001
ACAD
1000
ASC_BOUNDS
1002
{
1070
    19
1002
}
  0
LINE
  5
23F0
330
18
100
AcDbEntity
  8
0
100
AcDbLine
 10
12.88632112729301
 20
13.12532063784503
 30
0.0
 11
12.83475862729301
 21
13.26282063784503
 31
0.0
1001
ACAD
1000
ASC_BOUNDS
1002
{
1070
    19
1002
}
  0
CIRCLE
  5
2407
330
18
100
AcDbEntity
  8
0
100
AcDbCircle
 10
11.97324865933039
 20
12.80782063784503
 30
0.0
 40
0.04
  0
LINE
  5
2408
330
18
100
AcDbEntity
  8
0
100
AcDbLine
 10
12.26324865933039
 20
13.05257063784504
 30
0.0
 11
12.26324865933039
 21
12.56307063784503
 31
0.0
  0
LINE
  5
2409
330
18
100
AcDbEntity
  8
0
100
AcDbLine
 10
12.21824865933039
 20
13.05257063784504
 30
0.0
 11
12.21824865933039
 21
12.56307063784503
 31
0.0
  0
LINE
  5
240A
330
18
100
AcDbEntity
  8
0
100
AcDbLine
 10
11.79824865933039
 20
12.99557063784503
 30
0.0
 11
11.79824865933039
 21
12.62007063784504
 31
0.0
  0
LINE
  5
240B
330
18
100
AcDbEntity
  8
0
100
AcDbLine
 10
11.79824865933039
 20
12.99557063784503
 30
0.0
 11
12.21824865933039
 21
12.99557063784503
 31
0.0
  0
LINE
  5
240C
330
18
100
AcDbEntity
  8
0
100
AcDbLine
 10
12.26324865933039
 20
13.05257063784504
 30
0.0
 11
12.21824865933039
 21
13.05257063784504
 31
0.0
  0
LINE
  5
240D
330
18
100
AcDbEntity
  8
0
100
AcDbLine
 10
11.79824865933039
 20
12.62007063784504
 30
0.0
 11
12.21824865933039
 21
12.62007063784504
 31
0.0
  0
LINE
  5
240E
330
18
100
AcDbEntity
  8
0
100
AcDbLine
 10
12.26324865933039
 20
12.56307063784503
 30
0.0
 11
12.21824865933039
 21
12.56307063784503
 31
0.0
  0
LINE
  5
2412
330
18
100
AcDbEntity
  8
DIM1
100
AcDbLine
 10
12.10574865933039
 20
12.18503461356076
 30
0.0
 11
11.78253672017057
 21
12.11338025174655
 31
0.0
  0
LINE
  5
2413
330
18
100
AcDbEntity
  8
DIM1
100
AcDbLine
 10
12.10574865933039
 20
12.08260666212931
 30
0.0
 11
11.80418068156435
 21
12.01575065103455
 31
0.0
  0
LINE
  5
2420
330
18
100
AcDbEntity
  8
DIM1
100
AcDbLine
 10
12.10574865933039
 20
12.22132063784504
 30
0.0
 11
12.12202976270362
 21
12.04632063784504
 31
0.0
  0
LINE
  5
2421
330
18
100
AcDbEntity
  8
DIM1
100
AcDbLine
 10
12.12574865933039
 20
12.22132063784504
 30
0.0
 11
12.14202976270362
 21
12.04632063784504
 31
0.0
  0
LINE
  5
2422
330
18
100
AcDbEntity
  8
DIM1
100
AcDbLine
 10
12.18574865933039
 20
12.22132063784504
 30
0.0
 11
12.20202976270362
 21
12.04632063784504
 31
0.0
  0
LINE
  5
2423
330
18
100
AcDbEntity
  8
DIM1
100
AcDbLine
 10
12.20574865933039
 20
12.22132063784504
 30
0.0
 11
12.22024865933039
 21
12.06546510755139
 31
0.0
  0
LINE
  5
2429
330
18
100
AcDbEntity
  8
DIM1
100
AcDbLine
 10
12.14574865933039
 20
12.22132063784504
 30
0.0
 11
12.16202976270362
 21
12.04632063784504
 31
0.0
  0
LINE
  5
242A
330
18
100
AcDbEntity
  8
DIM1
100
AcDbLine
 10
12.16574865933039
 20
12.22132063784504
 30
0.0
 11
12.18202976270362
 21
12.04632063784504
 31
0.0
  0
ARC
  5
2434
330
18
100
AcDbEntity
  8
DIM1
100
AcDbCircle
 10
11.79491378757213
 20
12.06491020581292
 30
0.0
 40
0.0500253650688412
100
AcDbArc
 50
104.3246470605813
 51
280.6753529394181
  0
LWPOLYLINE
  5
2435
330
18
100
AcDbEntity
  8
DIM1
100
AcDbPolyline
 90
        3
 70
     0
 43
0.0
 10
12.10574865933039
 20
12.04632063784504
 10
12.10574865933039
 20
12.22132063784504
 10
12.22024865933039
 20
12.22132063784504
  0
LWPOLYLINE
  5
2446
330
18
100
AcDbEntity
  8
DIM1
100
AcDbPolyline
 90
        2
 70
     0
 43
0.0
 10
12.22024865933039
 20
12.04632063784504
 10
12.10574865933039
 20
12.04632063784504
  0
LINE
  5
2455
330
18
100
AcDbEntity
  8
0
100
AcDbLine
 10
12.22024865933039
 20
12.20334780452204
 30
0.0
 11
12.26324865933039
 21
12.20334780452204
 31
0.0
  0
LINE
  5
2456
330
18
100
AcDbEntity
  8
0
100
AcDbLine
 10
12.22024865933039
 20
12.06429347116803
 30
0.0
 11
12.26324865933039
 21
12.06429347116803
 31
0.0
  0
SOLID
  5
2457
330
18
100
AcDbEntity
  8
D1
100
AcDbTrace
 10
9.711031413093728
 20
11.81341697487214
 30
0.0
 11
9.737447271229363
 21
11.83374708923653
 31
0.0
 12
9.663248999068382
 22
11.90282960646124
 32
0.0
 13
9.663248999068382
 23
11.90282960646124
 33
0.0
  0
LINE
  5
2458
330
18
100
AcDbEntity
  8
D1
100
AcDbLine
 10
9.724239342161546
 20
11.82358203205434
 30
0.0
 11
9.993495514078764
 21
11.47372503115282
 31
0.0
  0
LWPOLYLINE
  5
2459
330
18
100
AcDbEntity
  8
0
100
AcDbPolyline
 90
        4
 70
     1
 43
0.0
 10
10.22661330111983
 20
11.91782063784503
 10
10.22661330111983
 20
13.10782063784503
 10
10.50661330111982
 20
13.10782063784503
 10
10.50661330111982
 20
11.91782063784503
1001
ACAD
1000
ASC_BOUNDS
1002
{
1070
    19
1005
24BB
1005
24BB
1002
}
  0
LINE
  5
2460
330
18
100
AcDbEntity
  8
0
  6
HIDDEN
100
AcDbLine
 10
10.22661330111983
 20
11.99607063784503
 30
0.0
 11
10.50661330111983
 21
11.99607063784503
 31
0.0
1001
ACAD
1000
ASC_BOUNDS
1002
{
1070
    19
1005
24BB
1002
}
  0
LINE
  5
2461
330
18
100
AcDbEntity
  8
0
  6
HIDDEN
100
AcDbLine
 10
10.22661330111983
 20
12.01107063784503
 30
0.0
 11
10.50661330111983
 21
12.01107063784503
 31
0.0
  0
LINE
  5
2462
330
18
100
AcDbEntity
  8
0
  6
HIDDEN
100
AcDbLine
 10
10.22661330111983
 20
13.01457063784504
 30
0.0
 11
10.50661330111983
 21
13.01457063784504
 31
0.0
  0
LINE
  5
2463
330
18
100
AcDbEntity
  8
0
  6
HIDDEN
100
AcDbLine
 10
10.22661330111983
 20
13.02957063784504
 30
0.0
 11
10.50661330111983
 21
13.02957063784504
 31
0.0
1001
ACAD
1000
ASC_BOUNDS
1002
{
1070
    19
1005
24BB
1002
}
  0
INSERT
  5
24BB
330
18
100
AcDbEntity
  8
0
100
AcDbBlockReference
  2
*X12
 10
0.0
 20
0.0
 30
0.0
1001
ACAD
1000
HATCH
1002
{
1070
    19
1000
ANSI31
1040
0.2
1040
0.0
1000
ASC_BOUNDS
1070
     2
1070
     1
1070
     2
1005
2460
1005
2459
1070
     1
1070
     2
1005
2459
1005
2463
1000
ASC_SEEDPOINT
1011
10.3653802710537
1021
13.0580483909537
1031
0.0
1002
}
  0
LINE
  5
24D2
330
18
100
AcDbEntity
  8
0
  6
HIDDEN
100
AcDbLine
 10
9.761147256620784
 20
12.51282063784503
 30
0.0
 11
10.15853259341572
 21
12.51282063784503
 31
0.0
  0
LWPOLYLINE
  5
24D4
330
18
100
AcDbEntity
  8
0
100
AcDbPolyline
 90
        4
 70
     1
 43
0.0
 10
12.88632112729301
 20
11.91282063784503
 10
12.88632112729301
 20
13.10282063784503
 10
13.166321127293
 20
13.10282063784503
 10
13.166321127293
 20
11.91282063784503
1001
ACAD
1000
ASC_BOUNDS
1002
{
1070
    19
1002
}
  0
POLYLINE
  5
24E2
330
18
100
AcDbEntity
  8
0
100
AcDb2dPolyline
 66
     1
 10
0.0
 20
0.0
 30
0.0
 70
     4
 40
0.16
 41
0.16
 75
     6
  0
VERTEX
  5
24E3
330
24E2
100
AcDbEntity
  8
0
100
AcDbVertex
100
AcDb2dVertex
 10
6.92027407757862
 20
12.09804890348303
 30
0.0
 70
    16
  0
VERTEX
  5
24F8
330
24E2
100
AcDbEntity
  8
0
100
AcDbVertex
100
AcDb2dVertex
 10
6.92027407757862
 20
12.09804890348303
 30
0.0
 70
     8
  0
VERTEX
  5
24F9
330
24E2
100
AcDbEntity
  8
0
100
AcDbVertex
100
AcDb2dVertex
 10
6.728083959905032
 20
11.82342578801155
 30
0.0
 70
     8
  0
VERTEX
  5
24FA
330
24E2
100
AcDbEntity
  8
0
100
AcDbVertex
100
AcDb2dVertex
 10
6.56240585272438
 20
11.59411061478104
 30
0.0
 70
     8
  0
VERTEX
  5
24FB
330
24E2
100
AcDbEntity
  8
0
100
AcDbVertex
100
AcDb2dVertex
 10
6.419804987433013
 20
11.40474565411761
 30
0.0
 70
     8
  0
VERTEX
  5
24FC
330
24E2
100
AcDbEntity
  8
0
100
AcDbVertex
100
AcDb2dVertex
 10
6.296846595427279
 20
11.2499731763474
 30
0.0
 70
     8
  0
VERTEX
  5
24FD
330
24E2
100
AcDbEntity
  8
0
100
AcDbVertex
100
AcDb2dVertex
 10
6.190095908103525
 20
11.12443545179653
 30
0.0
 70
     8
  0
VERTEX
  5
24FE
330
24E2
100
AcDbEntity
  8
0
100
AcDbVertex
100
AcDb2dVertex
 10
6.096118156858099
 20
11.02277475079111
 30
0.0
 70
     8
  0
VERTEX
  5
24FF
330
24E2
100
AcDbEntity
  8
0
100
AcDbVertex
100
AcDb2dVertex
 10
6.011478573087352
 20
10.93963334365729
 30
0.0
 70
     8
  0
VERTEX
  5
2500
330
24E2
100
AcDbEntity
  8
0
100
AcDbVertex
100
AcDb2dVertex
 10
5.932742388187627
 20
10.86965350072119
 30
0.0
 70
     8
  0
VERTEX
  5
2501
330
24E2
100
AcDbEntity
  8
0
100
AcDbVertex
100
AcDb2dVertex
 10
5.856983904774019
 20
10.80829632995363
 30
0.0
 70
     8
  0
VERTEX
  5
2502
330
24E2
100
AcDbEntity
  8
0
100
AcDbVertex
100
AcDb2dVertex
 10
5.783313710336591
 20
10.75429828990433
 30
0.0
 70
     8
  0
VERTEX
  5
2503
330
24E2
100
AcDbEntity
  8
0
100
AcDbVertex
100
AcDb2dVertex
 10
5.711351463584148
 20
10.7072146767677
 30
0.0
 70
     8
  0
VERTEX
  5
2504
330
24E2
100
AcDbEntity
  8
0
100
AcDbVertex
100
AcDb2dVertex
 10
5.640716823225496
 20
10.66660078673814
 30
0.0
 70
     8
  0
VERTEX
  5
2505
330
24E2
100
AcDbEntity
  8
0
100
AcDbVertex
100
AcDb2dVertex
 10
5.571029447969439
 20
10.63201191601008
 30
0.0
 70
     8
  0
VERTEX
  5
2506
330
24E2
100
AcDbEntity
  8
0
100
AcDbVertex
100
AcDb2dVertex
 10
5.501908996524786
 20
10.60300336077793
 30
0.0
 70
     8
  0
VERTEX
  5
2507
330
24E2
100
AcDbEntity
  8
0
100
AcDbVertex
100
AcDb2dVertex
 10
5.43297512760034
 20
10.5791304172361
 30
0.0
 70
     8
  0
VERTEX
  5
2508
330
24E2
100
AcDbEntity
  8
0
100
AcDbVertex
100
AcDb2dVertex
 10
5.363847499904911
 20
10.559948381579
 30
0.0
 70
     8
  0
VERTEX
  5
2509
330
24E2
100
AcDbEntity
  8
0
100
AcDbVertex
100
AcDb2dVertex
 10
5.294264180285125
 20
10.54503645880781
 30
0.0
 70
     8
  0
VERTEX
  5
250A
330
24E2
100
AcDbEntity
  8
0
100
AcDbVertex
100
AcDb2dVertex
 10
5.224436868138913
 20
10.53406948915068
 30
0.0
 70
     8
  0
VERTEX
  5
250B
330
24E2
100
AcDbEntity
  8
0
100
AcDbVertex
100
AcDb2dVertex
 10
5.154695671002028
 20
10.52674622164256
 30
0.0
 70
     8
  0
VERTEX
  5
250C
330
24E2
100
AcDbEntity
  8
0
100
AcDbVertex
100
AcDb2dVertex
 10
5.085370696410222
 20
10.52276540531835
 30
0.0
 70
     8
  0
VERTEX
  5
250D
330
24E2
100
AcDbEntity
  8
0
100
AcDbVertex
100
AcDb2dVertex
 10
5.016792051899251
 20
10.52182578921301
 30
0.0
 70
     8
  0
VERTEX
  5
250E
330
24E2
100
AcDbEntity
  8
0
100
AcDbVertex
100
AcDb2dVertex
 10
4.949289845004868
 20
10.52362612236143
 30
0.0
 70
     8
  0
VERTEX
  5
250F
330
24E2
100
AcDbEntity
  8
0
100
AcDbVertex
100
AcDb2dVertex
 10
4.883194183262824
 20
10.52786515379855
 30
0.0
 70
     8
  0
VERTEX
  5
2510
330
24E2
100
AcDbEntity
  8
0
100
AcDbVertex
100
AcDb2dVertex
 10
4.818835174208873
 20
10.5342416325593
 30
0.0
 70
     8
  0
VERTEX
  5
2511
330
24E2
100
AcDbEntity
  8
0
100
AcDbVertex
100
AcDb2dVertex
 10
4.756507044124886
 20
10.54251647057615
 30
0.0
 70
     8
  0
VERTEX
  5
2512
330
24E2
100
AcDbEntity
  8
0
100
AcDbVertex
100
AcDb2dVertex
 10
4.69636049427718
 20
10.55269923137181
 30
0.0
 70
     8
  0
VERTEX
  5
2513
330
24E2
100
AcDbEntity
  8
0
100
AcDbVertex
100
AcDb2dVertex
 10
4.638510344678194
 20
10.56486164136653
 30
0.0
 70
     8
  0
VERTEX
  5
2514
330
24E2
100
AcDbEntity
  8
0
100
AcDbVertex
100
AcDb2dVertex
 10
4.583071415340364
 20
10.57907542698057
 30
0.0
 70
     8
  0
VERTEX
  5
2515
330
24E2
100
AcDbEntity
  8
0
100
AcDbVertex
100
AcDb2dVertex
 10
4.530158526276125
 20
10.59541231463418
 30
0.0
 70
     8
  0
VERTEX
  5
2516
330
24E2
100
AcDbEntity
  8
0
100
AcDbVertex
100
AcDb2dVertex
 10
4.479886497497912
 20
10.61394403074763
 30
0.0
 70
     8
  0
VERTEX
  5
2517
330
24E2
100
AcDbEntity
  8
0
100
AcDbVertex
100
AcDb2dVertex
 10
4.432370149018162
 20
10.63474230174116
 30
0.0
 70
     8
  0
VERTEX
  5
2518
330
24E2
100
AcDbEntity
  8
0
100
AcDbVertex
100
AcDb2dVertex
 10
4.387724300849312
 20
10.65787885403503
 30
0.0
 70
     8
  0
VERTEX
  5
2519
330
24E2
100
AcDbEntity
  8
0
100
AcDbVertex
100
AcDb2dVertex
 10
4.346032675917096
 20
10.68336086027127
 30
0.0
 70
     8
  0
VERTEX
  5
251A
330
24E2
100
AcDbEntity
  8
0
100
AcDbVertex
100
AcDb2dVertex
 10
4.307254608800442
 20
10.71093727797898
 30
0.0
 70
     8
  0
VERTEX
  5
251B
330
24E2
100
AcDbEntity
  8
0
100
AcDbVertex
100
AcDb2dVertex
 10
4.271318336991578
 20
10.74029251090903
 30
0.0
 70
     8
  0
VERTEX
  5
251C
330
24E2
100
AcDbEntity
  8
0
100
AcDbVertex
100
AcDb2dVertex
 10
4.238152097982731
 20
10.77111096281231
 30
0.0
 70
     8
  0
VERTEX
  5
251D
330
24E2
100
AcDbEntity
  8
0
100
AcDbVertex
100
AcDb2dVertex
 10
4.20768412926613
 20
10.80307703743968
 30
0.0
 70
     8
  0
VERTEX
  5
251E
330
24E2
100
AcDbEntity
  8
0
100
AcDbVertex
100
AcDb2dVertex
 10
4.179842668334002
 20
10.83587513854202
 30
0.0
 70
     8
  0
VERTEX
  5
251F
330
24E2
100
AcDbEntity
  8
0
100
AcDbVertex
100
AcDb2dVertex
 10
4.154555952678573
 20
10.8691896698702
 30
0.0
 70
     8
  0
VERTEX
  5
2520
330
24E2
100
AcDbEntity
  8
0
100
AcDbVertex
100
AcDb2dVertex
 10
4.131752219792073
 20
10.90270503517509
 30
0.0
 70
     8
  0
VERTEX
  5
2521
330
24E2
100
AcDbEntity
  8
0
100
AcDbVertex
100
AcDb2dVertex
 10
4.111376451751874
 20
10.93616780110513
 30
0.0
 70
     8
  0
VERTEX
  5
2522
330
24E2
100
AcDbEntity
  8
0
100
AcDbVertex
100
AcDb2dVertex
 10
4.09344060897594
 20
10.96957318589897
 30
0.0
 70
     8
  0
VERTEX
  5
2523
330
24E2
100
AcDbEntity
  8
0
100
AcDbVertex
100
AcDb2dVertex
 10
4.077973396467378
 20
11.00297857069281
 30
0.0
 70
     8
  0
VERTEX
  5
2524
330
24E2
100
AcDbEntity
  8
0
100
AcDbVertex
100
AcDb2dVertex
 10
4.0650035192293
 20
11.03644133662285
 30
0.0
 70
     8
  0
VERTEX
  5
2525
330
24E2
100
AcDbEntity
  8
0
100
AcDbVertex
100
AcDb2dVertex
 10
4.054559682264812
 20
11.07001886482531
 30
0.0
 70
     8
  0
VERTEX
  5
2526
330
24E2
100
AcDbEntity
  8
0
100
AcDbVertex
100
AcDb2dVertex
 10
4.046670590577025
 20
11.10376853643637
 30
0.0
 70
     8
  0
VERTEX
  5
2527
330
24E2
100
AcDbEntity
  8
0
100
AcDbVertex
100
AcDb2dVertex
 10
4.041364949169046
 20
11.13774773259226
 30
0.0
 70
     8
  0
VERTEX
  5
2528
330
24E2
100
AcDbEntity
  8
0
100
AcDbVertex
100
AcDb2dVertex
 10
4.038671463043986
 20
11.17201383442916
 30
0.0
 70
     8
  0
VERTEX
  5
2529
330
24E2
100
AcDbEntity
  8
0
100
AcDbVertex
100
AcDb2dVertex
 10
4.038606876786991
 20
11.20660031427655
 30
0.0
 70
     8
  0
VERTEX
  5
252A
330
24E2
100
AcDbEntity
  8
0
100
AcDbVertex
100
AcDb2dVertex
 10
4.041140093311359
 20
11.24144500923685
 30
0.0
 70
     8
  0
VERTEX
  5
252B
330
24E2
100
AcDbEntity
  8
0
100
AcDbVertex
100
AcDb2dVertex
 10
4.046228055112428
 20
11.27646184760577
 30
0.0
 70
     8
  0
VERTEX
  5
252C
330
24E2
100
AcDbEntity
  8
0
100
AcDbVertex
100
AcDb2dVertex
 10
4.053827704685533
 20
11.311564757679
 30
0.0
 70
     8
  0
VERTEX
  5
252D
330
24E2
100
AcDbEntity
  8
0
100
AcDbVertex
100
AcDb2dVertex
 10
4.063895984526012
 20
11.34666766775223
 30
0.0
 70
     8
  0
VERTEX
  5
252E
330
24E2
100
AcDbEntity
  8
0
100
AcDbVertex
100
AcDb2dVertex
 10
4.0763898371292
 20
11.38168450612115
 30
0.0
 70
     8
  0
VERTEX
  5
252F
330
24E2
100
AcDbEntity
  8
0
100
AcDbVertex
100
AcDb2dVertex
 10
4.091266204990434
 20
11.41652920108145
 30
0.0
 70
     8
  0
VERTEX
  5
2530
330
24E2
100
AcDbEntity
  8
0
100
AcDbVertex
100
AcDb2dVertex
 10
4.108482030605052
 20
11.45111568092884
 30
0.0
 70
     8
  0
VERTEX
  5
2531
330
24E2
100
AcDbEntity
  8
0
100
AcDbVertex
100
AcDb2dVertex
 10
4.127991864384795
 20
11.48531961986819
 30
0.0
 70
     8
  0
VERTEX
  5
2532
330
24E2
100
AcDbEntity
  8
0
100
AcDbVertex
100
AcDb2dVertex
 10
4.149740688407041
 20
11.51886367574119
 30
0.0
 70
     8
  0
VERTEX
  5
2533
330
24E2
100
AcDbEntity
  8
0
100
AcDbVertex
100
AcDb2dVertex
 10
4.173671092665569
 20
11.55143225229871
 30
0.0
 70
     8
  0
VERTEX
  5
2534
330
24E2
100
AcDbEntity
  8
0
100
AcDbVertex
100
AcDb2dVertex
 10
4.199725667154162
 20
11.58270975329162
 30
0.0
 70
     8
  0
VERTEX
  5
2535
330
24E2
100
AcDbEntity
  8
0
100
AcDbVertex
100
AcDb2dVertex
 10
4.227847001866604
 20
11.61238058247081
 30
0.0
 70
     8
  0
VERTEX
  5
2536
330
24E2
100
AcDbEntity
  8
0
100
AcDbVertex
100
AcDb2dVertex
 10
4.257977686796674
 20
11.64012914358713
 30
0.0
 70
     8
  0
VERTEX
  5
2537
330
24E2
100
AcDbEntity
  8
0
100
AcDbVertex
100
AcDb2dVertex
 10
4.290060311938156
 20
11.66563984039147
 30
0.0
 70
     8
  0
VERTEX
  5
2538
330
24E2
100
AcDbEntity
  8
0
100
AcDbVertex
100
AcDb2dVertex
 10
4.324037467284831
 20
11.6885970766347
 30
0.0
 70
     8
  0
VERTEX
  5
2539
330
24E2
100
AcDbEntity
  8
0
100
AcDbVertex
100
AcDb2dVertex
 10
4.359863703248444
 20
11.70875937336863
 30
0.0
 70
     8
  0
VERTEX
  5
253A
330
24E2
100
AcDbEntity
  8
0
100
AcDbVertex
100
AcDb2dVertex
 10
4.397541411912587
 20
11.72618172084878
 30
0.0
 70
     8
  0
VERTEX
  5
253B
330
24E2
100
AcDbEntity
  8
0
100
AcDbVertex
100
AcDb2dVertex
 10
4.437084945778813
 20
11.74099322663162
 30
0.0
 70
     8
  0
VERTEX
  5
253C
330
24E2
100
AcDbEntity
  8
0
100
AcDbVertex
100
AcDb2dVertex
 10
4.47850865734868
 20
11.75332299827361
 30
0.0
 70
     8
  0
VERTEX
  5
253D
330
24E2
100
AcDbEntity
  8
0
100
AcDbVertex
100
AcDb2dVertex
 10
4.521826899123738
 20
11.7633001433312
 30
0.0
 70
     8
  0
VERTEX
  5
253E
330
24E2
100
AcDbEntity
  8
0
100
AcDbVertex
100
AcDb2dVertex
 10
4.567054023605546
 20
11.77105376936086
 30
0.0
 70
     8
  0
VERTEX
  5
253F
330
24E2
100
AcDbEntity
  8
0
100
AcDbVertex
100
AcDb2dVertex
 10
4.614204383295656
 20
11.77671298391905
 30
0.0
 70
     8
  0
VERTEX
  5
2540
330
24E2
100
AcDbEntity
  8
0
100
AcDbVertex
100
AcDb2dVertex
 10
4.663292330695623
 20
11.78040689456223
 30
0.0
 70
     8
  0
VERTEX
  5
2541
330
24E2
100
AcDbEntity
  8
0
100
AcDbVertex
100
AcDb2dVertex
 10
4.714236534963304
 20
11.7822502635628
 30
0.0
 70
     8
  0
VERTEX
  5
2542
330
24E2
100
AcDbEntity
  8
0
100
AcDbVertex
100
AcDb2dVertex
 10
4.76657293188177
 20
11.78230047205698
 30
0.0
 70
     8
  0
VERTEX
  5
2543
330
24E2
100
AcDbEntity
  8
0
100
AcDbVertex
100
AcDb2dVertex
 10
4.819741773890399
 20
11.78060055589692
 30
0.0
 70
     8
  0
VERTEX
  5
2544
330
24E2
100
AcDbEntity
  8
0
100
AcDbVertex
100
AcDb2dVertex
 10
4.873183313428563
 20
11.77719355093476
 30
0.0
 70
     8
  0
VERTEX
  5
2545
330
24E2
100
AcDbEntity
  8
0
100
AcDbVertex
100
AcDb2dVertex
 10
4.926337802935636
 20
11.77212249302267
 30
0.0
 70
     8
  0
VERTEX
  5
2546
330
24E2
100
AcDbEntity
  8
0
100
AcDbVertex
100
AcDb2dVertex
 10
4.978645494850995
 20
11.7654304180128
 30
0.0
 70
     8
  0
VERTEX
  5
2547
330
24E2
100
AcDbEntity
  8
0
100
AcDbVertex
100
AcDb2dVertex
 10
5.029546641614012
 20
11.7571603617573
 30
0.0
 70
     8
  0
VERTEX
  5
2548
330
24E2
100
AcDbEntity
  8
0
100
AcDbVertex
100
AcDb2dVertex
 10
5.078481495664064
 20
11.74735536010832
 30
0.0
 70
     8
  0
VERTEX
  5
2549
330
24E2
100
AcDbEntity
  8
0
100
AcDbVertex
100
AcDb2dVertex
 10
5.125041010706847
 20
11.73599389513979
 30
0.0
 70
     8
  0
VERTEX
  5
254A
330
24E2
100
AcDbEntity
  8
0
100
AcDbVertex
100
AcDb2dVertex
 10
5.169418945513347
 20
11.7227962338127
 30
0.0
 70
     8
  0
VERTEX
  5
254B
330
24E2
100
AcDbEntity
  8
0
100
AcDbVertex
100
AcDb2dVertex
 10
5.21195976012087
 20
11.70741808930984
 30
0.0
 70
     8
  0
VERTEX
  5
254C
330
24E2
100
AcDbEntity
  8
0
100
AcDbVertex
100
AcDb2dVertex
 10
5.253007914566727
 20
11.68951517481397
 30
0.0
 70
     8
  0
VERTEX
  5
254D
330
24E2
100
AcDbEntity
  8
0
100
AcDbVertex
100
AcDb2dVertex
 10
5.292907868888224
 20
11.66874320350787
 30
0.0
 70
     8
  0
VERTEX
  5
254E
330
24E2
100
AcDbEntity
  8
0
100
AcDbVertex
100
AcDb2dVertex
 10
5.33200408312267
 20
11.64475788857431
 30
0.0
 70
     8
  0
VERTEX
  5
254F
330
24E2
100
AcDbEntity
  8
0
100
AcDbVertex
100
AcDb2dVertex
 10
5.370641017307371
 20
11.61721494319605
 30
0.0
 70
     8
  0
VERTEX
  5
2550
330
24E2
100
AcDbEntity
  8
0
100
AcDbVertex
100
AcDb2dVertex
 10
5.409163131479637
 20
11.58577008055587
 30
0.0
 70
     8
  0
VERTEX
  5
2551
330
24E2
100
AcDbEntity
  8
0
100
AcDbVertex
100
AcDb2dVertex
 10
5.447809633998708
 20
11.55024876636449
 30
0.0
 70
     8
  0
VERTEX
  5
2552
330
24E2
100
AcDbEntity
  8
0
100
AcDbVertex
100
AcDb2dVertex
 10
5.486398726511562
 20
11.51115547644436
 30
0.0
 70
     8
  0
VERTEX
  5
2553
330
24E2
100
AcDbEntity
  8
0
100
AcDbVertex
100
AcDb2dVertex
 10
5.524643358987106
 20
11.46916443914589
 30
0.0
 70
     8
  0
VERTEX
  5
2554
330
24E2
100
AcDbEntity
  8
0
100
AcDbVertex
100
AcDb2dVertex
 10
5.562256481394253
 20
11.42494988281949
 30
0.0
 70
     8
  0
VERTEX
  5
2555
330
24E2
100
AcDbEntity
  8
0
100
AcDbVertex
100
AcDb2dVertex
 10
5.598951043701913
 20
11.37918603581557
 30
0.0
 70
     8
  0
VERTEX
  5
2556
330
24E2
100
AcDbEntity
  8
0
100
AcDbVertex
100
AcDb2dVertex
 10
5.634439995878995
 20
11.33254712648452
 30
0.0
 70
     8
  0
VERTEX
  5
2557
330
24E2
100
AcDbEntity
  8
0
100
AcDbVertex
100
AcDb2dVertex
 10
5.668436287894411
 20
11.28570738317676
 30
0.0
 70
     8
  0
VERTEX
  5
2558
330
24E2
100
AcDbEntity
  8
0
100
AcDbVertex
100
AcDb2dVertex
 10
5.700652869717067
 20
11.23934103424268
 30
0.0
 70
     8
  0
VERTEX
  5
2559
330
24E2
100
AcDbEntity
  8
0
100
AcDbVertex
100
AcDb2dVertex
 10
5.730888806325204
 20
11.19397407343084
 30
0.0
 70
     8
  0
VERTEX
  5
255A
330
24E2
100
AcDbEntity
  8
0
100
AcDbVertex
100
AcDb2dVertex
 10
5.759287622734365
 20
11.14953955608232
 30
0.0
 70
     8
  0
VERTEX
  5
255B
330
24E2
100
AcDbEntity
  8
0
100
AcDbVertex
100
AcDb2dVertex
 10
5.786078958969422
 20
11.10582230293636
 30
0.0
 70
     8
  0
VERTEX
  5
255C
330
24E2
100
AcDbEntity
  8
0
100
AcDbVertex
100
AcDb2dVertex
 10
5.811492455055248
 20
11.0626071347322
 30
0.0
 70
     8
  0
VERTEX
  5
255D
330
24E2
100
AcDbEntity
  8
0
100
AcDbVertex
100
AcDb2dVertex
 10
5.835757751016717
 20
11.01967887220905
 30
0.0
 70
     8
  0
VERTEX
  5
255E
330
24E2
100
AcDbEntity
  8
0
100
AcDbVertex
100
AcDb2dVertex
 10
5.859104486878695
 20
10.97682233610616
 30
0.0
 70
     8
  0
VERTEX
  5
255F
330
24E2
100
AcDbEntity
  8
0
100
AcDbVertex
100
AcDb2dVertex
 10
5.881762302666058
 20
10.93382234716277
 30
0.0
 70
     8
  0
VERTEX
  5
2560
330
24E2
100
AcDbEntity
  8
0
100
AcDbVertex
100
AcDb2dVertex
 10
5.903960838403679
 20
10.89046372611809
 30
0.0
 70
     8
  0
VERTEX
  5
2561
330
24E2
100
AcDbEntity
  8
0
100
AcDbVertex
100
AcDb2dVertex
 10
5.925929734116426
 20
10.84658150220554
 30
0.0
 70
     8
  0
VERTEX
  5
2562
330
24E2
100
AcDbEntity
  8
0
100
AcDbVertex
100
AcDb2dVertex
 10
5.947898629829174
 20
10.80221153863526
 30
0.0
 70
     8
  0
VERTEX
  5
2563
330
24E2
100
AcDbEntity
  8
0
100
AcDbVertex
100
AcDb2dVertex
 10
5.970097165566794
 20
10.75743990711154
 30
0.0
 70
     8
  0
VERTEX
  5
2564
330
24E2
100
AcDbEntity
  8
0
100
AcDbVertex
100
AcDb2dVertex
 10
5.992754981354156
 20
10.71235267933869
 30
0.0
 70
     8
  0
VERTEX
  5
2565
330
24E2
100
AcDbEntity
  8
0
100
AcDbVertex
100
AcDb2dVertex
 10
6.016101717216137
 20
10.66703592702103
 30
0.0
 70
     8
  0
VERTEX
  5
2566
330
24E2
100
AcDbEntity
  8
0
100
AcDbVertex
100
AcDb2dVertex
 10
6.040367013177603
 20
10.62157572186285
 30
0.0
 70
     8
  0
VERTEX
  5
2567
330
24E2
100
AcDbEntity
  8
0
100
AcDbVertex
100
AcDb2dVertex
 10
6.065780509263429
 20
10.57605813556847
 30
0.0
 70
     8
  0
VERTEX
  5
2568
330
24E2
100
AcDbEntity
  8
0
100
AcDbVertex
100
AcDb2dVertex
 10
6.092571845498487
 20
10.5305692398422
 30
0.0
 70
     8
  0
VERTEX
  5
2569
330
24E2
100
AcDbEntity
  8
0
100
AcDbVertex
100
AcDb2dVertex
 10
6.12093238857017
 20
10.4852357513598
 30
0.0
 70
     8
  0
VERTEX
  5
256A
330
24E2
100
AcDbEntity
  8
0
100
AcDbVertex
100
AcDb2dVertex
 10
6.150900411815957
 20
10.440346966683
 30
0.0
 70
     8
  0
VERTEX
  5
256B
330
24E2
100
AcDbEntity
  8
0
100
AcDbVertex
100
AcDb2dVertex
 10
6.182475915235847
 20
10.39623282734496
 30
0.0
 70
     8
  0
VERTEX
  5
256C
330
24E2
100
AcDbEntity
  8
0
100
AcDbVertex
100
AcDb2dVertex
 10
6.215658898829839
 20
10.35322327487886
 30
0.0
 70
     8
  0
VERTEX
  5
256D
330
24E2
100
AcDbEntity
  8
0
100
AcDbVertex
100
AcDb2dVertex
 10
6.250449362597936
 20
10.31164825081788
 30
0.0
 70
     8
  0
VERTEX
  5
256E
330
24E2
100
AcDbEntity
  8
0
100
AcDbVertex
100
AcDb2dVertex
 10
6.286847306540136
 20
10.27183769669519
 30
0.0
 70
     8
  0
VERTEX
  5
256F
330
24E2
100
AcDbEntity
  8
0
100
AcDbVertex
100
AcDb2dVertex
 10
6.324852730656439
 20
10.23412155404398
 30
0.0
 70
     8
  0
VERTEX
  5
2570
330
24E2
100
AcDbEntity
  8
0
100
AcDbVertex
100
AcDb2dVertex
 10
6.364465634946846
 20
10.19882976439741
 30
0.0
 70
     8
  0
VERTEX
  5
2571
330
24E2
100
AcDbEntity
  8
0
100
AcDbVertex
100
AcDb2dVertex
 10
6.405720704623447
 20
10.16622173830875
 30
0.0
 70
     8
  0
VERTEX
  5
2572
330
24E2
100
AcDbEntity
  8
0
100
AcDbVertex
100
AcDb2dVertex
 10
6.44879136574669
 20
10.13627476241158
 30
0.0
 70
     8
  0
VERTEX
  5
2573
330
24E2
100
AcDbEntity
  8
0
100
AcDbVertex
100
AcDb2dVertex
 10
6.493885729589119
 20
10.10889559235957
 30
0.0
 70
     8
  0
VERTEX
  5
2574
330
24E2
100
AcDbEntity
  8
0
100
AcDbVertex
100
AcDb2dVertex
 10
6.541211907423271
 20
10.0839909838064
 30
0.0
 70
     8
  0
VERTEX
  5
2575
330
24E2
100
AcDbEntity
  8
0
100
AcDbVertex
100
AcDb2dVertex
 10
6.590978010521688
 20
10.06146769240571
 30
0.0
 70
     8
  0
VERTEX
  5
2576
330
24E2
100
AcDbEntity
  8
0
100
AcDbVertex
100
AcDb2dVertex
 10
6.643392150156908
 20
10.04123247381119
 30
0.0
 70
     8
  0
VERTEX
  5
2577
330
24E2
100
AcDbEntity
  8
0
100
AcDbVertex
100
AcDb2dVertex
 10
6.698662437601473
 20
10.0231920836765
 30
0.0
 70
     8
  0
VERTEX
  5
2578
330
24E2
100
AcDbEntity
  8
0
100
AcDbVertex
100
AcDb2dVertex
 10
6.756996984127924
 20
10.00725327765531
 30
0.0
 70
     8
  0
VERTEX
  5
2579
330
24E2
100
AcDbEntity
  8
0
100
AcDbVertex
100
AcDb2dVertex
 10
6.818465160160439
 20
9.993332374923982
 30
0.0
 70
     8
  0
VERTEX
  5
257A
330
24E2
100
AcDbEntity
  8
0
100
AcDbVertex
100
AcDb2dVertex
 10
6.882581372729759
 20
9.981383948749691
 30
0.0
 70
     8
  0
VERTEX
  5
257B
330
24E2
100
AcDbEntity
  8
0
100
AcDbVertex
100
AcDb2dVertex
 10
6.948721288018261
 20
9.971372135922306
 30
0.0
 70
     8
  0
VERTEX
  5
257C
330
24E2
100
AcDbEntity
  8
0
100
AcDbVertex
100
AcDb2dVertex
 10
7.016260572208327
 20
9.963261073231704
 30
0.0
 70
     8
  0
VERTEX
  5
257D
330
24E2
100
AcDbEntity
  8
0
100
AcDbVertex
100
AcDb2dVertex
 10
7.084574891482337
 20
9.957014897467756
 30
0.0
 70
     8
  0
VERTEX
  5
257E
330
24E2
100
AcDbEntity
  8
0
100
AcDbVertex
100
AcDb2dVertex
 10
7.153039912022669
 20
9.952597745420332
 30
0.0
 70
     8
  0
VERTEX
  5
257F
330
24E2
100
AcDbEntity
  8
0
100
AcDbVertex
100
AcDb2dVertex
 10
7.221031300011702
 20
9.949973753879303
 30
0.0
 70
     8
  0
VERTEX
  5
2580
330
24E2
100
AcDbEntity
  8
0
100
AcDbVertex
100
AcDb2dVertex
 10
7.287924721631816
 20
9.949107059634545
 30
0.0
 70
     8
  0
VERTEX
  5
24E4
330
24E2
100
AcDbEntity
  8
0
100
AcDbVertex
100
AcDb2dVertex
 10
6.369364622144113
 20
11.3005475795277
 30
0.0
 70
    16
  0
VERTEX
  5
24E5
330
24E2
100
AcDbEntity
  8
0
100
AcDbVertex
100
AcDb2dVertex
 10
5.906410332002312
 20
10.78641259913356
 30
0.0
 70
    16
  0
VERTEX
  5
24E6
330
24E2
100
AcDbEntity
  8
0
100
AcDbVertex
100
AcDb2dVertex
 10
5.369971233901495
 20
10.51465553806809
 30
0.0
 70
    16
  0
VERTEX
  5
24E7
330
24E2
100
AcDbEntity
  8
0
100
AcDbVertex
100
AcDb2dVertex
 10
4.796789731821169
 20
10.51465553806809
 30
0.0
 70
    16
  0
VERTEX
  5
24E8
330
24E2
100
AcDbEntity
  8
0
100
AcDbVertex
100
AcDb2dVertex
 10
4.355880884067072
 20
10.63217210501532
 30
0.0
 70
    16
  0
VERTEX
  5
24E9
330
24E2
100
AcDbEntity
  8
0
100
AcDbVertex
100
AcDb2dVertex
 10
4.106032537006417
 20
10.90392916608079
 30
0.0
 70
    16
  0
VERTEX
  5
24EA
330
24E2
100
AcDbEntity
  8
0
100
AcDbVertex
100
AcDb2dVertex
 10
4.010502286659696
 20
11.16834144171206
 30
0.0
 70
    16
  0
VERTEX
  5
24EB
330
24E2
100
AcDbEntity
  8
0
100
AcDbVertex
100
AcDb2dVertex
 10
4.083987094618713
 20
11.45478807364594
 30
0.0
 70
    16
  0
VERTEX
  5
24EC
330
24E2
100
AcDbEntity
  8
0
100
AcDbVertex
100
AcDb2dVertex
 10
4.30444151849576
 20
11.71920034927721
 30
0.0
 70
    16
  0
VERTEX
  5
24ED
330
24E2
100
AcDbEntity
  8
0
100
AcDbVertex
100
AcDb2dVertex
 10
4.642471635107234
 20
11.79999298905343
 30
0.0
 70
    16
  0
VERTEX
  5
24EE
330
24E2
100
AcDbEntity
  8
0
100
AcDbVertex
100
AcDb2dVertex
 10
5.105425925249036
 20
11.76326906188242
 30
0.0
 70
    16
  0
VERTEX
  5
24EF
330
24E2
100
AcDbEntity
  8
0
100
AcDbVertex
100
AcDb2dVertex
 10
5.406713637881003
 20
11.63106292406679
 30
0.0
 70
    16
  0
VERTEX
  5
24F0
330
24E2
100
AcDbEntity
  8
0
100
AcDbVertex
100
AcDb2dVertex
 10
5.722698312104771
 20
11.22709972518568
 30
0.0
 70
    16
  0
VERTEX
  5
24F1
330
24E2
100
AcDbEntity
  8
0
100
AcDbVertex
100
AcDb2dVertex
 10
5.906410332002312
 20
10.89658438064659
 30
0.0
 70
    16
  0
VERTEX
  5
24F2
330
24E2
100
AcDbEntity
  8
0
100
AcDbVertex
100
AcDb2dVertex
 10
6.075425390308049
 20
10.52934510893649
 30
0.0
 70
    16
  0
VERTEX
  5
24F3
330
24E2
100
AcDbEntity
  8
0
100
AcDbVertex
100
AcDb2dVertex
 10
6.347319179756409
 20
10.1694506226606
 30
0.0
 70
    16
  0
VERTEX
  5
24F4
330
24E2
100
AcDbEntity
  8
0
100
AcDbVertex
100
AcDb2dVertex
 10
6.722091700347391
 20
9.985830986805554
 30
0.0
 70
    16
  0
VERTEX
  5
24F5
330
24E2
100
AcDbEntity
  8
0
100
AcDbVertex
100
AcDb2dVertex
 10
7.111561182530175
 20
9.949107059634544
 30
0.0
 70
    16
  0
VERTEX
  5
24F6
330
24E2
100
AcDbEntity
  8
0
100
AcDbVertex
100
AcDb2dVertex
 10
7.287924721631815
 20
9.949107059634544
 30
0.0
 70
    16
  0
SEQEND
  5
24F7
330
24E2
100
AcDbEntity
  8
0
  0
LINE
  5
258B
330
18
100
AcDbEntity
  8
0
100
AcDbLine
 10
7.287924721631816
 20
10.09910705963454
 30
0.0
 11
8.107924721631816
 21
10.13410705963454
 31
0.0
  0
LINE
  5
258C
330
18
100
AcDbEntity
  8
0
100
AcDbLine
 10
7.287924721631816
 20
9.799107059634545
 30
0.0
 11
8.107924721631816
 21
9.764107059634545
 31
0.0
  0
LINE
  5
258D
330
18
100
AcDbEntity
  8
0
100
AcDbLine
 10
7.287924721631815
 20
9.799107059634543
 30
0.0
 11
7.287924721631817
 21
10.09910705963454
 31
0.0
  0
LINE
  5
258F
330
18
100
AcDbEntity
  8
0
100
AcDbLine
 10
8.107924721631816
 20
10.13410705963454
 30
0.0
 11
8.107924721631816
 21
9.764107059634545
 31
0.0
  0
LWPOLYLINE
  5
2591
330
18
100
AcDbEntity
  8
0
100
AcDbPolyline
 90
        4
 70
     1
 43
0.0
 10
8.277924721631816
 20
9.624107059634546
 10
8.277924721631816
 20
10.27410705963454
 10
9.637924721631815
 20
10.27410705963454
 10
9.637924721631815
 20
9.624107059634546
  0
LINE
  5
2598
330
18
100
AcDbEntity
  8
0
100
AcDbLine
 10
8.107924721631816
 20
10.13410705963454
 30
0.0
 11
8.277924721631816
 21
10.27410705963454
 31
0.0
  0
LINE
  5
2599
330
18
100
AcDbEntity
  8
0
100
AcDbLine
 10
8.107924721631816
 20
9.764107059634545
 30
0.0
 11
8.277924721631816
 21
9.624107059634546
 31
0.0
  0
CIRCLE
  5
259B
330
18
100
AcDbEntity
  8
0
100
AcDbCircle
 10
11.08564025467467
 20
9.949107059634545
 30
0.0
 40
0.325
  0
CIRCLE
  5
259C
330
18
100
AcDbEntity
  8
0
100
AcDbCircle
 10
11.08564025467467
 20
9.949107059634545
 30
0.0
 40
0.295
  0
CIRCLE
  5
259D
330
18
100
AcDbEntity
  8
0
100
AcDbCircle
 10
11.08564025467467
 20
9.949107059634545
 30
0.0
 40
0.24
  0
CIRCLE
  5
25A6
330
18
100
AcDbEntity
  8
0
100
AcDbCircle
 10
10.95564025467467
 20
9.949107059634545
 30
0.0
 40
0.0325
  0
CIRCLE
  5
25A8
330
18
100
AcDbEntity
  8
0
100
AcDbCircle
 10
10.99371637312042
 20
10.04103094118879
 30
0.0
 40
0.0325
  0
CIRCLE
  5
25A9
330
18
100
AcDbEntity
  8
0
100
AcDbCircle
 10
11.08564025467467
 20
10.07910705963454
 30
0.0
 40
0.0325
  0
CIRCLE
  5
25AA
330
18
100
AcDbEntity
  8
0
100
AcDbCircle
 10
11.17756413622892
 20
10.04103094118879
 30
0.0
 40
0.0325
  0
CIRCLE
  5
25AB
330
18
100
AcDbEntity
  8
0
100
AcDbCircle
 10
11.21564025467467
 20
9.949107059634545
 30
0.0
 40
0.0325
  0
LINE
  5
25AD
330
18
100
AcDbEntity
  8
0
100
AcDbLine
 10
11.03564025467467
 20
9.789107059634545
 30
0.0
 11
11.03564025467467
 21
9.714373167748435
 31
0.0
  0
LINE
  5
25AE
330
18
100
AcDbEntity
  8
0
100
AcDbLine
 10
11.13564025467467
 20
9.789107059634545
 30
0.0
 11
11.13564025467467
 21
9.714373167748435
 31
0.0
  0
LINE
  5
25B0
330
18
100
AcDbEntity
  8
0
100
AcDbLine
 10
11.03564025467467
 20
9.789107059634545
 30
0.0
 11
11.13564025467467
 21
9.789107059634545
 31
0.0
  0
LINE
  5
25B1
330
18
100
AcDbEntity
  8
D1
100
AcDbLine
 10
11.27955129886953
 20
9.949107059634545
 30
0.0
 11
11.55962652417787
 21
9.949107059634545
 31
0.0
  0
LINE
  5
25B2
330
18
100
AcDbEntity
  8
D1
100
AcDbLine
 10
11.08564025467467
 20
10.14301810382941
 30
0.0
 11
11.08564025467467
 21
10.42309332913774
 31
0.0
  0
LINE
  5
25B3
330
18
100
AcDbEntity
  8
D1
100
AcDbLine
 10
10.8917292104798
 20
9.949107059634545
 30
0.0
 11
10.61165398517147
 21
9.949107059634545
 31
0.0
  0
LINE
  5
25B4
330
18
100
AcDbEntity
  8
D1
100
AcDbLine
 10
11.22275606897182
 20
10.0862228739317
 30
0.0
 11
11.42079916002969
 21
10.28426596498957
 31
0.0
  0
LINE
  5
25B5
330
18
100
AcDbEntity
  8
D1
100
AcDbLine
 10
10.94852444037751
 20
10.0862228739317
 30
0.0
 11
10.75048134931964
 21
10.28426596498957
 31
0.0
  0
TEXT
  5
25B8
330
18
100
AcDbEntity
  8
D1
100
AcDbText
 10
10.17096551790644
 20
9.906630161762317
 30
0.0
 40
0.07
  1
COMMON
100
AcDbText
  0
TEXT
  5
25B9
330
18
100
AcDbEntity
  8
D1
100
AcDbText
 10
11.42224055780537
 20
10.30558062560384
 30
0.0
 40
0.07
  1
+12VDC
100
AcDbText
  0
TEXT
  5
25BA
330
18
100
AcDbEntity
  8
D1
100
AcDbText
 10
10.33194827157765
 20
10.30227659046734
 30
0.0
 40
0.07
  1
-12VDC
100
AcDbText
  0
TEXT
  5
25BB
330
18
100
AcDbEntity
  8
D1
100
AcDbText
 10
11.01978367362735
 20
10.45515902400507
 30
0.0
 40
0.07
  1
n.c.
100
AcDbText
  0
TEXT
  5
25BD
330
18
100
AcDbEntity
  8
D1
100
AcDbText
 10
11.61981030094731
 20
9.924914457170411
 30
0.0
 40
0.07
  1
n.c.
100
AcDbText
  0
TEXT
  5
25BE
330
18
100
AcDbEntity
  8
D1
100
AcDbText
 10
10.26864822239426
 20
9.317875849621756
 30
0.0
 40
0.0800000000000001
  1
END VIEW OF 5-PIN DIN
 72
     1
 11
11.08198155572759
 21
9.317875849621756
 31
0.0
100
AcDbText
  0
TEXT
  5
25BF
330
18
100
AcDbEntity
  8
D1
100
AcDbText
 10
10.21531488906093
 20
9.184542516288423
 30
0.0
 40
0.0800000000000001
  1
RECEPTACLE ON DETECTOR
 72
     1
 11
11.08198155572759
 21
9.184542516288423
 31
0.0
100
AcDbText
  0
SOLID
  5
25C0
330
18
100
AcDbEntity
  8
D1
100
AcDbTrace
 10
10.66594263574266
 20
11.81735893785841
 30
0.0
 11
10.68653028241608
 21
11.84357458043229
 31
0.0
 12
10.59758953135772
 22
11.8922296991656
 32
0.0
 13
10.59758953135772
 23
11.8922296991656
 33
0.0
  0
LINE
  5
25C1
330
18
100
AcDbEntity
  8
D1
100
AcDbLine
 10
10.67623645907937
 20
11.83046675914535
 30
0.0
 11
11.02625091111865
 21
11.55559370009801
 31
0.0
  0
TEXT
  5
25C2
330
18
100
AcDbEntity
  8
D1
100
AcDbText
 10
11.1640349260418
 20
11.43318060952798
 30
0.0
 40
0.0800000000000001
  1
SM1T1, THREADED
100
AcDbText
  0
TEXT
  5
25C3
330
18
100
AcDbEntity
  8
D1
100
AcDbText
 10
11.1640349260418
 20
11.29984727619465
 30
0.0
 40
0.0800000000000001
  1
COUPLER (REMOVEABLE)
100
AcDbText
  0
LINE
  5
25C4
330
18
100
AcDbEntity
  8
D1
100
AcDbLine
 10
9.642066548916675
 20
12.60882063784503
 30
0.0
 11
9.642066548916675
 21
13.42410984714626
 31
0.0
  0
LINE
  5
25C5
330
18
100
AcDbEntity
  8
D1
100
AcDbLine
 10
9.554647879289476
 20
13.11518178522221
 30
0.0
 11
9.554647879289476
 21
13.42410984714626
 31
0.0
  0
LINE
  5
25C6
330
18
100
AcDbEntity
  8
D1
100
AcDbLine
 10
9.742066548916675
 20
13.40010984714626
 30
0.0
 11
9.842066548916674
 21
13.40010984714626
 31
0.0
  0
LINE
  5
25C7
330
18
100
AcDbEntity
  8
D1
100
AcDbLine
 10
9.454647879289476
 20
13.40010984714626
 30
0.0
 11
9.354647879289476
 21
13.40010984714626
 31
0.0
  0
SOLID
  5
25C8
330
18
100
AcDbEntity
  8
D1
100
AcDbTrace
 10
9.742066548916675
 20
13.41677651381293
 30
0.0
 11
9.742066548916675
 21
13.38344318047959
 31
0.0
 12
9.642066548916675
 22
13.40010984714626
 32
0.0
 13
9.642066548916675
 23
13.40010984714626
 33
0.0
  0
SOLID
  5
25C9
330
18
100
AcDbEntity
  8
D1
100
AcDbTrace
 10
9.454647879289476
 20
13.41677651381293
 30
0.0
 11
9.454647879289476
 21
13.38344318047959
 31
0.0
 12
9.554647879289476
 22
13.40010984714626
 32
0.0
 13
9.554647879289476
 23
13.40010984714626
 33
0.0
  0
MTEXT
  5
25CA
330
18
100
AcDbEntity
  8
D1
100
AcDbMText
 10
9.160594050954971
 20
13.40350555220081
 30
0.0
 40
0.08
 41
0.0
 71
     5
 72
     5
  1
\A1;0.087
 73
     1
 44
1.0
  0
LINE
  5
25D2
330
18
100
AcDbEntity
  8
D1
100
AcDbLine
 10
12.26324865933039
 20
13.28782063784504
 30
0.0
 11
12.26324865933039
 21
13.49229824025477
 31
0.0
  0
LINE
  5
25D3
330
18
100
AcDbEntity
  8
D1
100
AcDbLine
 10
12.88632112729301
 20
13.12782063784503
 30
0.0
 11
12.88632112729301
 21
13.49229824025477
 31
0.0
  0
LINE
  5
25D4
330
18
100
AcDbEntity
  8
D1
100
AcDbLine
 10
12.36324865933039
 20
13.46829824025477
 30
0.0
 11
12.42545155997836
 21
13.46829824025477
 31
0.0
  0
LINE
  5
25D5
330
18
100
AcDbEntity
  8
D1
100
AcDbLine
 10
12.786321127293
 20
13.46829824025477
 30
0.0
 11
12.72411822664503
 21
13.46829824025477
 31
0.0
  0
SOLID
  5
25D6
330
18
100
AcDbEntity
  8
D1
100
AcDbTrace
 10
12.36324865933039
 20
13.48496490692144
 30
0.0
 11
12.36324865933039
 21
13.4516315735881
 31
0.0
 12
12.26324865933039
 22
13.46829824025477
 32
0.0
 13
12.26324865933039
 23
13.46829824025477
 33
0.0
  0
SOLID
  5
25D7
330
18
100
AcDbEntity
  8
D1
100
AcDbTrace
 10
12.786321127293
 20
13.48496490692144
 30
0.0
 11
12.786321127293
 21
13.4516315735881
 31
0.0
 12
12.88632112729301
 22
13.46829824025477
 32
0.0
 13
12.88632112729301
 23
13.46829824025477
 33
0.0
  0
MTEXT
  5
25D8
330
18
100
AcDbEntity
  8
D1
100
AcDbMText
 10
12.5747848933117
 20
13.46829824025477
 30
0.0
 40
0.08
 41
0.0
 71
     5
 72
     5
  1
\A1;0.62
 73
     1
 44
1.0
  0
LINE
  5
25D9
330
18
100
AcDbEntity
  8
D1
100
AcDbLine
 10
12.26324865933039
 20
13.28782063784504
 30
0.0
 11
12.26324865933039
 21
13.64429824025477
 31
0.0
  0
LINE
  5
25DA
330
18
100
AcDbEntity
  8
D1
100
AcDbLine
 10
13.166321127293
 20
13.12782063784503
 30
0.0
 11
13.166321127293
 21
13.64429824025477
 31
0.0
  0
LINE
  5
25DB
330
18
100
AcDbEntity
  8
D1
100
AcDbLine
 10
12.36324865933039
 20
13.62029824025477
 30
0.0
 11
12.57211822664503
 21
13.62029824025477
 31
0.0
  0
LINE
  5
25DC
330
18
100
AcDbEntity
  8
D1
100
AcDbLine
 10
13.06632112729301
 20
13.62029824025477
 30
0.0
 11
12.85745155997836
 21
13.62029824025477
 31
0.0
  0
SOLID
  5
25DD
330
18
100
AcDbEntity
  8
D1
100
AcDbTrace
 10
12.36324865933039
 20
13.63696490692144
 30
0.0
 11
12.36324865933039
 21
13.6036315735881
 31
0.0
 12
12.26324865933039
 22
13.62029824025477
 32
0.0
 13
12.26324865933039
 23
13.62029824025477
 33
0.0
  0
SOLID
  5
25DE
330
18
100
AcDbEntity
  8
D1
100
AcDbTrace
 10
13.06632112729301
 20
13.63696490692144
 30
0.0
 11
13.06632112729301
 21
13.6036315735881
 31
0.0
 12
13.166321127293
 22
13.62029824025477
 32
0.0
 13
13.166321127293
 23
13.62029824025477
 33
0.0
  0
MTEXT
  5
25DF
330
18
100
AcDbEntity
  8
D1
100
AcDbMText
 10
12.7147848933117
 20
13.62029824025477
 30
0.0
 40
0.08
 41
0.0
 71
     5
 72
     5
  1
\A1;0.90
 73
     1
 44
1.0
  0
SOLID
  5
25E0
330
18
100
AcDbEntity
  8
D1
100
AcDbTrace
 10
9.825257366993199
 20
12.74624941815424
 30
0.0
 11
9.797608779977311
 21
12.76486840704021
 31
0.0
 12
9.755576106827332
 22
12.67261315154956
 32
0.0
 13
9.755576106827332
 23
12.67261315154956
 33
0.0
  0
LINE
  5
25E1
330
18
100
AcDbEntity
  8
D1
100
AcDbLine
 10
9.811433073485254
 20
12.75555891259722
 30
0.0
 11
10.29140283152849
 21
13.46829824025477
 31
0.0
  0
TEXT
  5
25E2
330
18
100
AcDbEntity
  8
D1
100
AcDbText
 10
10.09238147663948
 20
13.54480642186104
 30
0.0
 40
0.0800000000000001
  1
DETECTOR
100
AcDbText
  0
TEXT
  5
25E3
330
18
100
AcDbEntity
  8
D1
100
AcDbText
 10
8.382205350621731
 20
9.398062978801197
 30
0.0
 40
0.0800000000000001
  1
DC POWER INPUT
 72
     1
 11
8.928872017288398
 21
9.398062978801197
 31
0.0
100
AcDbText
  0
LWPOLYLINE
  5
25E9
330
18
100
AcDbEntity
  8
BODY
100
AcDbPolyline
 90
        2
 70
     1
 43
0.2
 10
6.82027407757862
 20
12.09804890348303
 42
1.0
 10
7.020274077578619
 20
12.09804890348303
 42
1.0
  0
LINE
  5
25F4
330
18
100
AcDbEntity
  8
0
100
AcDbLine
 10
12.83475862729301
 20
13.26282063784503
 30
0.0
 11
12.83475862729301
 21
11.76282063784503
 31
0.0
  0
TEXT
  5
25FD
330
18
100
AcDbEntity
  8
D1
100
AcDbText
 10
9.918230808436847
 20
10.82897128404793
 30
0.0
 40
0.08
  1
(M4 TAP THRU -EC VERSION)
100
AcDbText
  0
VIEWPORT
  5
31
330
15
100
AcDbEntity
 67
     1
  8
0
100
AcDbViewport
 10
8.313354003812008
 20
5.912161679958672
 30
0.0
 40
20.4788084305816
 41
11.82548684927157
 68
     1
 69
     1
 12
8.313354003812008
 22
5.912161679958672
 13
0.0
 23
0.0
 14
0.005
 24
0.005
 15
0.25
 25
0.25
 16
0.0
 26
0.0
 36
1.0
 17
0.0
 27
0.0
 37
0.0
 42
50.0
 43
0.0
 44
0.0
 45
11.82548684927157
 50
0.0
 51
0.0
 72
     0
 90
    32768
  1

281
     0
 71
     1
 74
     0
110
0.0
120
0.0
130
0.0
111
1.0
121
0.0
131
0.0
112
0.0
122
1.0
132
0.0
 79
     0
146
0.0
  0
TRACE
  5
32
330
15
100
AcDbEntity
 67
     1
  8
BORDER
100
AcDbTrace
 10
0.1056659004338574
 20
11.76051951376358
 30
0.0
 11
0.138015900433857
 21
11.72816951376357
 31
0.0
 12
16.14990892582951
 22
11.76051951376358
 32
0.0
 13
16.11755892582951
 23
11.72816951376357
 33
0.0
  0
TRACE
  5
33
330
15
100
AcDbEntity
 67
     1
  8
BORDER
100
AcDbTrace
 10
0.121840900433857
 20
0.0961538461537676
 30
0.0
 11
0.121840900433857
 21
0.0638038461537676
 31
0.0
 12
16.13373392582951
 22
0.0961538461537676
 32
0.0
 13
16.13373392582951
 23
0.0638038461537676
 33
0.0
  0
TRACE
  5
34
330
15
100
AcDbEntity
 67
     1
  8
BORDER
100
AcDbTrace
 10
0.1056659004338574
 20
0.0799788461537676
 30
0.0
 11
0.138015900433857
 21
0.0799788461537676
 31
0.0
 12
0.1056659004338574
 22
11.76051951376358
 32
0.0
 13
0.138015900433857
 23
11.72816951376357
 33
0.0
  0
TRACE
  5
35
330
15
100
AcDbEntity
 67
     1
  8
BORDER
100
AcDbTrace
 10
16.14990892582951
 20
11.76051951376358
 30
0.0
 11
16.11755892582951
 21
11.72816951376357
 31
0.0
 12
16.14990892582951
 22
0.0799788461537676
 32
0.0
 13
16.11755892582951
 23
0.0799788461537676
 33
0.0
  0
TRACE
  5
36
330
15
100
AcDbEntity
 67
     1
  8
BORDER
100
AcDbTrace
 10
12.74979678251742
 20
1.463150559458989
 30
0.17469
 11
12.74979678251742
 21
1.443740559458988
 31
0.17469
 12
16.14169428251742
 22
1.463150559458989
 32
0.17469
 13
16.14169428251742
 23
1.443740559458988
 33
0.17469
 39
0.17469
  0
LINE
  5
37
330
15
100
AcDbEntity
 67
     1
  8
BORDER
100
AcDbLine
 39
0.17469
 10
12.74494428251742
 20
1.453445559458988
 30
0.17469
 11
16.14169428251742
 21
1.453445559458988
 31
0.17469
  0
TRACE
  5
38
330
15
100
AcDbEntity
 67
     1
  8
BORDER
100
AcDbTrace
 10
16.14169428251742
 20
1.73489055945899
 30
0.17469
 11
16.14169428251742
 21
1.754300559458989
 31
0.17469
 12
12.74979678251742
 22
1.73489055945899
 32
0.17469
 13
12.74979678251742
 23
1.754300559458989
 33
0.17469
 39
0.17469
  0
TRACE
  5
39
330
15
100
AcDbEntity
 67
     1
  8
BORDER
100
AcDbTrace
 10
14.81210928251742
 20
1.269050559458989
 30
0.17469
 11
14.81210928251742
 21
1.288460559458989
 31
0.17469
 12
12.74494428251742
 22
1.269050559458989
 32
0.17469
 13
12.74494428251742
 23
1.288460559458989
 33
0.17469
 39
0.17469
  0
TRACE
  5
3A
330
15
100
AcDbEntity
 67
     1
  8
BORDER
100
AcDbTrace
 10
14.80240428251742
 20
1.288460559458989
 30
0.17469
 11
14.82181428251742
 21
1.269050559458989
 31
0.17469
 12
16.14169428251742
 22
1.288460559458989
 32
0.17469
 13
16.14169428251742
 23
1.269050559458989
 33
0.17469
 39
0.17469
  0
TRACE
  5
3B
330
15
100
AcDbEntity
 67
     1
  8
BORDER
100
AcDbTrace
 10
14.80240428251742
 20
0.0941555594589893
 30
0.17469
 11
14.82181428251742
 21
0.0941555594589893
 31
0.17469
 12
14.80240428251742
 22
1.288460559458989
 32
0.17469
 13
14.82181428251742
 23
1.269050559458989
 33
0.17469
 39
0.17469
  0
LINE
  5
3C
330
15
100
AcDbEntity
 67
     1
  8
BORDER
100
AcDbLine
 39
0.17469
 10
14.12305428251742
 20
0.4053055594589888
 30
0.17469
 11
14.12305428251742
 21
0.6964555594589893
 31
0.17469
  0
LINE
  5
3D
330
15
100
AcDbEntity
 67
     1
  8
BORDER
100
AcDbLine
 39
0.17469
 10
13.43399928251742
 20
0.4053055594589888
 30
0.17469
 11
13.43399928251742
 21
0.9924580594589899
 31
0.17469
  0
LINE
  5
3E
330
15
100
AcDbEntity
 67
     1
  8
BORDER
100
AcDbLine
 39
0.17469
 10
14.12305428251742
 20
0.6964555594589893
 30
0.17469
 11
14.12305428251742
 21
0.9876055594589898
 31
0.17469
  0
LINE
  5
3F
330
15
100
AcDbEntity
 67
     1
  8
BORDER
100
AcDbLine
 39
0.27
 10
13.77852678251742
 20
0.6964555594589893
 30
0.0
 11
13.77852678251742
 21
0.0740422188705968
 31
0.0
  0
TEXT
  5
40
330
15
100
AcDbEntity
 67
     1
  8
BORDER
100
AcDbText
 10
12.86429649511886
 20
0.1440422188705966
 30
0.0
 40
0.1099999999999999
  1
2238-E01
100
AcDbText
  0
TEXT
  5
41
330
15
100
AcDbEntity
 67
     1
  8
BORDER
100
AcDbText
 10
13.58969725854942
 20
0.7390422188705967
 30
0.0
 40
0.1
  1
EC
100
AcDbText
  0
TEXT
  5
42
330
15
100
AcDbEntity
 67
     1
  8
BORDER
100
AcDbText
 10
13.01698346641809
 20
1.50900563588562
 30
0.0
 40
0.11
  1
ENGINEERING SUPPORT DRAWING
100
AcDbText
  0
TEXT
  5
43
330
15
100
AcDbEntity
 67
     1
  8
BORDER
100
AcDbText
 10
12.83228928251742
 20
1.327280559458989
 30
0.17469
 40
0.067935
  1
TOL: X.XXX=+/-0.005 X.XX=+/-0.010 ANGULAR +/-30'
100
AcDbText
  0
TEXT
  5
44
330
15
100
AcDbEntity
 67
     1
  8
BORDER
100
AcDbText
 10
13.49708178251742
 20
0.885703059458989
 30
0.17469
 40
0.067935
  1
ENGR.
100
AcDbText
  0
LINE
  5
45
330
15
100
AcDbEntity
 67
     1
  8
BORDER
100
AcDbLine
 10
12.74494428251742
 20
0.4053055594589888
 30
0.17469
 11
14.80986776334785
 21
0.4053055594589893
 31
0.17469
  0
LINE
  5
46
330
15
100
AcDbEntity
 67
     1
  8
BORDER
100
AcDbLine
 10
12.74494428251742
 20
0.6964555594589893
 30
0.17469
 11
14.80986776334785
 21
0.6964555594589893
 31
0.17469
  0
LINE
  5
47
330
15
100
AcDbEntity
 67
     1
  8
BORDER
100
AcDbLine
 10
12.74494428251742
 20
0.9876055594589898
 30
0.17469
 11
14.80986776334785
 21
0.9876055594589898
 31
0.17469
  0
LINE
  5
48
330
15
100
AcDbEntity
 67
     1
  8
BORDER
100
AcDbLine
 10
12.74494428251742
 20
1.278755559458988
 30
0.17469
 11
16.14169428251742
 21
1.278755559458988
 31
0.17469
  0
TRACE
  5
49
330
15
100
AcDbEntity
 67
     1
  8
BORDER
100
AcDbTrace
 10
16.14169428251742
 20
2.108533059458988
 30
0.17469
 11
16.14169428251742
 21
2.157058059458989
 31
0.17469
 12
12.76920678251742
 22
2.108533059458988
 32
0.17469
 13
12.72068178251742
 23
2.157058059458989
 33
0.17469
  0
LINE
  5
4A
330
15
100
AcDbEntity
 67
     1
  8
BORDER
100
AcDbLine
 10
12.74494428251742
 20
1.744595559458989
 30
0.17469
 11
16.14169428251742
 21
1.744595559458989
 31
0.17469
  0
TRACE
  5
4B
330
15
100
AcDbEntity
 67
     1
  8
BORDER
100
AcDbTrace
 10
12.76920678251742
 20
2.108533059458988
 30
0.17469
 11
12.72068178251742
 21
2.157058059458989
 31
0.17469
 12
12.76920678251742
 22
0.0791555594589896
 32
0.17469
 13
12.72068178251742
 23
0.0791555594589896
 33
0.17469
  0
TEXT
  5
4C
330
15
100
AcDbEntity
 67
     1
  8
BORDER
100
AcDbText
 10
12.83228928251742
 20
1.64269305945899
 30
0.17469
 40
0.067935
  1
TITLE
100
AcDbText
  0
TEXT
  5
4D
330
15
100
AcDbEntity
 67
     1
  8
BORDER
100
AcDbText
 10
12.89969725854942
 20
0.7390422188705967
 30
0.0
 40
0.1
  1
EC
100
AcDbText
  0
TEXT
  5
4E
330
15
100
AcDbEntity
 67
     1
  8
BORDER
100
AcDbText
 10
12.84496180534806
 20
0.4490422188705966
 30
0.0
 40
0.0800000000000001
  1
4/1/98
100
AcDbText
  0
TEXT
  5
4F
330
15
100
AcDbEntity
 67
     1
  8
BORDER
100
AcDbText
 10
12.83714178251742
 20
0.599405559458989
 30
0.17469
 40
0.067935
  1
DATE
100
AcDbText
  0
TEXT
  5
50
330
15
100
AcDbEntity
 67
     1
  8
BORDER
100
AcDbText
 10
12.83714178251742
 20
0.3082555594589894
 30
0.17469
 40
0.067935
  1
DWG NO.
100
AcDbText
  0
TEXT
  5
51
330
15
100
AcDbEntity
 67
     1
  8
BORDER
100
AcDbText
 10
13.49927178251742
 20
0.5945530594589896
 30
0.17469
 40
0.0727875
  1
REV
100
AcDbText
  0
TEXT
  5
52
330
15
100
AcDbEntity
 67
     1
  8
BORDER
100
AcDbText
 10
12.83228928251742
 20
1.172000559458989
 30
0.17469
 40
0.067935
  1
MATERIAL
100
AcDbText
  0
TEXT
  5
53
330
15
100
AcDbEntity
 67
     1
  8
BORDER
100
AcDbText
 10
12.83228928251742
 20
0.885703059458989
 30
0.17469
 40
0.067935
  1
DRAWN
100
AcDbText
  0
TEXT
  5
54
330
15
100
AcDbEntity
 67
     1
  8
BORDER
100
AcDbText
 10
13.91302099005726
 20
0.4538004443675879
 30
0.0
 40
0.075
  1
B
 72
     1
 11
13.93802099005726
 21
0.4538004443675879
 31
0.0
100
AcDbText
  0
TEXT
  5
55
330
15
100
AcDbEntity
 67
     1
  8
BORDER
100
AcDbText
 10
13.82802099005726
 20
0.5963004443675876
 30
0.0
 40
0.075
  1
SIZE
 72
     1
 11
13.95302099005726
 21
0.5963004443675876
 31
0.0
100
AcDbText
  0
TEXT
  5
56
330
15
100
AcDbEntity
 67
     1
  8
SHEET2
100
AcDbText
 10
14.25969725854942
 20
0.4490422188705966
 30
0.0
 40
0.0800000000000001
  1
2
100
AcDbText
  0
TEXT
  5
57
330
15
100
AcDbEntity
 67
     1
  8
BORDER
100
AcDbText
 10
14.59969725854942
 20
0.4490422188705966
 30
0.0
 40
0.0800000000000001
  1
1
100
AcDbText
  0
TEXT
  5
58
330
15
100
AcDbEntity
 67
     1
  8
BORDER
100
AcDbText
 10
14.85578178251742
 20
1.172000559458989
 30
0.17469
 40
0.067935
  1
WHERE USED
100
AcDbText
  0
LINE
  5
59
330
15
100
AcDbEntity
 67
     1
  8
BORDER
100
AcDbLine
 10
14.81210928251742
 20
1.278755559458988
 30
0.17469
 11
14.81210928251742
 21
0.0893030594589891
 31
0.17469
  0
TEXT
  5
5A
330
15
100
AcDbEntity
 67
     1
  8
BORDER
100
AcDbText
 10
14.20554678251742
 20
0.5994055594589897
 30
0.17469
 40
0.067935
  1
SHEET
100
AcDbText
  0
TEXT
  5
5B
330
15
100
AcDbEntity
 67
     1
  8
BORDER
100
AcDbText
 10
13.84214178251742
 20
0.3082555594589894
 30
0.17469
 40
0.067935
  1
PART NO.
100
AcDbText
  0
TEXT
  5
5C
330
15
100
AcDbEntity
 67
     1
  8
BORDER
100
AcDbText
 10
14.42154928251743
 20
0.4489780594589891
 30
0.17469
 40
0.067935
  1
OF
100
AcDbText
  0
TEXT
  5
5D
330
15
100
AcDbEntity
 67
     1
  8
BORDER
100
AcDbText
 10
14.18613678251742
 20
0.885703059458989
 30
0.17469
 40
0.067935
  1
APPROVED
100
AcDbText
  0
LWPOLYLINE
  5
5E
330
15
100
AcDbEntity
 67
     1
  8
BORDER
100
AcDbPolyline
 90
        2
 70
     0
 43
0.010918125
 38
0.34938
 10
13.71688289776254
 20
1.921031147980924
 42
0.9399343180161681
 10
13.70870212454998
 20
2.053011237050389
 42
0.9399343180161681
  0
LWPOLYLINE
  5
62
330
15
100
AcDbEntity
 67
     1
  8
BORDER
100
AcDbPolyline
 90
        2
 70
     0
 43
0.010918125
 38
0.34938
 10
13.76347423654242
 20
1.863792469703274
 42
0.3581345567762107
 10
13.71702853007067
 20
1.910180457464733
 42
0.3581345567762107
  0
SOLID
  5
66
330
15
100
AcDbEntity
 67
     1
  8
BORDER
100
AcDbTrace
 10
13.71704316116369
 20
1.848630661501172
 30
0.34938
 11
13.72125635293576
 21
1.799452559790676
 31
0.34938
 12
13.76890699141241
 22
1.86432776205468
 32
0.34938
 13
13.77489016132415
 23
1.803603756956197
 33
0.34938
  0
SOLID
  5
67
330
15
100
AcDbEntity
 67
     1
  8
BORDER
100
AcDbTrace
 10
13.71704316116369
 20
1.848630661501172
 30
0.34938
 11
13.76890699141241
 21
1.86432776205468
 31
0.34938
 12
13.71813742024643
 22
1.86492442006571
 32
0.34938
 13
13.76242004952599
 23
1.880433663257464
 33
0.34938
  0
SOLID
  5
68
330
15
100
AcDbEntity
 67
     1
  8
BORDER
100
AcDbTrace
 10
13.71813742024643
 20
1.86492442006571
 30
0.34938
 11
13.76242004952599
 21
1.880433663257464
 31
0.34938
 12
13.70559067528388
 22
1.881910734037631
 32
0.34938
 13
13.73511242813692
 23
1.902589724959968
 33
0.34938
  0
SOLID
  5
69
330
15
100
AcDbEntity
 67
     1
  8
BORDER
100
AcDbTrace
 10
13.71225696802393
 20
1.934785639621091
 30
0.34938
 11
13.7331170282676
 21
1.925060476938988
 31
0.34938
 12
13.7312813745813
 22
1.977461871958022
 32
0.34938
 13
13.77366541287122
 23
1.963889946238806
 33
0.34938
  0
SOLID
  5
6A
330
15
100
AcDbEntity
 67
     1
  8
BORDER
100
AcDbTrace
 10
13.7312813745813
 20
1.977461871958022
 30
0.34938
 11
13.77366541287122
 21
1.963889946238806
 31
0.34938
 12
13.72563016947597
 22
2.000081748156714
 32
0.34938
 13
13.76801420776589
 23
2.02213612745044
 33
0.34938
  0
SOLID
  5
6B
330
15
100
AcDbEntity
 67
     1
  8
BORDER
100
AcDbTrace
 10
13.72563016947597
 20
2.000081748156714
 30
0.34938
 11
13.76801420776589
 21
2.02213612745044
 31
0.34938
 12
13.70698119262841
 22
2.019874139830569
 32
0.34938
 13
13.72619528998651
 23
2.050976469603772
 33
0.34938
  0
SOLID
  5
6C
330
15
100
AcDbEntity
 67
     1
  8
BORDER
100
AcDbTrace
 10
13.7257838417322
 20
1.785517174550391
 30
0.34938
 11
13.78205906467182
 21
1.785517174550391
 31
0.34938
 12
13.72320566522924
 22
1.793107017963238
 32
0.34938
 13
13.77383641633558
 23
1.798428696752162
 33
0.34938
  0
SOLID
  5
6D
330
15
100
AcDbEntity
 67
     1
  8
BORDER
100
AcDbTrace
 10
13.72320566522924
 20
1.793107017963238
 30
0.34938
 11
13.77383641633558
 21
1.798428696752162
 31
0.34938
 12
13.72125635293576
 22
1.799452559790676
 32
0.34938
 13
13.77489016132415
 23
1.803603756956197
 33
0.34938
  0
SOLID
  5
6E
330
15
100
AcDbEntity
 67
     1
  8
BORDER
100
AcDbTrace
 10
13.07616569997758
 20
2.05847029955039
 30
0.34938
 11
13.13075632497758
 21
2.05847029955039
 31
0.34938
 12
13.07616569997758
 22
1.785517174550391
 32
0.34938
 13
13.13075632497758
 23
1.785517174550391
 33
0.34938
  0
SOLID
  5
6F
330
15
100
AcDbEntity
 67
     1
  8
BORDER
100
AcDbTrace
 10
12.93423007497758
 20
1.785517174550391
 30
0.34938
 11
12.98882069997758
 21
1.785517174550391
 31
0.34938
 12
12.93423007497758
 22
2.013433033925389
 32
0.34938
 13
12.98882069997758
 23
2.013433033925389
 33
0.34938
  0
SOLID
  5
70
330
15
100
AcDbEntity
 67
     1
  8
BORDER
100
AcDbTrace
 10
12.84688507497758
 20
2.05847029955039
 30
0.34938
 11
13.07616569997758
 21
2.05847029955039
 31
0.34938
 12
12.84688507497758
 22
2.013433033925389
 32
0.34938
 13
13.07616569997758
 23
2.013433033925389
 33
0.34938
  0
LWPOLYLINE
  5
71
330
15
100
AcDbEntity
 67
     1
  8
BORDER
100
AcDbPolyline
 90
        4
 70
     1
 43
0.010918125
 38
0.34938
 10
13.3611751215932
 20
1.982948460294121
 42
0.2285268323977459
 10
13.36245017668198
 20
1.859016305673628
 42
0.6230043105321781
 10
13.49376153041032
 20
1.859430602868629
 42
0.2290062495557326
 10
13.49414198053866
 20
1.983489135081407
 42
0.6323121992740218
  0
LWPOLYLINE
  5
77
330
15
100
AcDbEntity
 67
     1
  8
BORDER
100
AcDbPolyline
 90
        2
 70
     0
 43
0.010918125
 38
0.34938
 10
13.54543268523569
 20
1.974540906766844
 42
0.7414713431190223
 10
13.31059582711126
 20
1.973154396174273
 42
0.7414713431190223
  0
LWPOLYLINE
  5
7B
330
15
100
AcDbEntity
 67
     1
  8
BORDER
100
AcDbPolyline
 90
        2
 70
     0
 43
0.010918125
 38
0.34938
 10
13.31014079501824
 20
1.875747296840756
 42
0.7616390336395551
 10
13.54746528064477
 20
1.878246289623231
 42
0.7616390336395551
  0
SOLID
  5
7F
330
15
100
AcDbEntity
 67
     1
  8
BORDER
100
AcDbTrace
 10
13.42743387901695
 20
2.064008478898216
 30
0.34938
 11
13.42628085961306
 21
2.024779708517782
 31
0.34938
 12
13.35479365657231
 22
2.038625156887346
 32
0.34938
 13
13.37554800584221
 23
2.007472898055826
 33
0.34938
  0
SOLID
  5
80
330
15
100
AcDbEntity
 67
     1
  8
BORDER
100
AcDbTrace
 10
13.37942203963642
 20
1.793567966753643
 30
0.34938
 11
13.3993352974571
 21
1.821924938806849
 31
0.34938
 12
13.42843928965656
 22
1.784371110952602
 32
0.34938
 13
13.42843928965656
 23
1.818859320206502
 33
0.34938
  0
LWPOLYLINE
  5
81
330
15
100
AcDbEntity
 67
     1
  8
BORDER
100
AcDbPolyline
 90
        2
 70
     0
 43
0.010918125
 38
0.34938
 10
13.31059582711126
 20
1.973154396174273
 42
0.1430540650207981
 10
13.31014079501824
 20
1.875747296840756
 42
0.1430540650207981
  0
SOLID
  5
85
330
15
100
AcDbEntity
 67
     1
  8
BORDER
100
AcDbTrace
 10
13.30206669194837
 20
1.921557543318113
 30
0.34938
 11
13.34648857477913
 21
1.917725520067679
 31
0.34938
 12
13.32197994976906
 22
1.843384269009275
 32
0.34938
 13
13.36104057087886
 23
1.857945957360921
 33
0.34938
  0
SOLID
  5
86
330
15
100
AcDbEntity
 67
     1
  8
BORDER
100
AcDbTrace
 10
13.24403187185258
 20
2.05847029955039
 30
0.34938
 11
13.29862249685258
 21
2.05847029955039
 31
0.34938
 12
13.24403187185258
 22
1.785517174550391
 32
0.34938
 13
13.29862249685258
 23
1.785517174550391
 33
0.34938
  0
SOLID
  5
87
330
15
100
AcDbEntity
 67
     1
  8
BORDER
100
AcDbTrace
 10
13.32197994976906
 20
1.843384269009275
 30
0.34938
 11
13.36104057087886
 21
1.857945957360921
 31
0.34938
 12
13.37942203963642
 22
1.793567966753643
 32
0.34938
 13
13.3993352974571
 23
1.821924938806849
 33
0.34938
  0
SOLID
  5
88
330
15
100
AcDbEntity
 67
     1
  8
BORDER
100
AcDbTrace
 10
13.24403187185258
 20
1.95201858080039
 30
0.34938
 11
13.13075632497758
 21
1.95201858080039
 31
0.34938
 12
13.24403187185258
 22
1.905616549550391
 32
0.34938
 13
13.13075632497758
 23
1.905616549550391
 33
0.34938
  0
SOLID
  5
89
330
15
100
AcDbEntity
 67
     1
  8
BORDER
100
AcDbTrace
 10
13.35479365657231
 20
2.038625156887346
 30
0.34938
 11
13.37554800584221
 21
2.007472898055826
 31
0.34938
 12
13.31789703564806
 22
1.997088811778651
 32
0.34938
 13
13.35709969538008
 23
1.96939791503952
 33
0.34938
  0
SOLID
  5
8A
330
15
100
AcDbEntity
 67
     1
  8
BORDER
100
AcDbTrace
 10
13.31789703564806
 20
1.997088811778651
 30
0.34938
 11
13.35709969538008
 21
1.96939791503952
 31
0.34938
 12
13.30206669194837
 22
1.921557543318113
 32
0.34938
 13
13.34648857477913
 23
1.917725520067679
 33
0.34938
  0
SOLID
  5
8B
330
15
100
AcDbEntity
 67
     1
  8
BORDER
100
AcDbTrace
 10
13.55803850816131
 20
1.785517174550391
 30
0.34938
 11
13.55803850816131
 21
2.05847029955039
 31
0.34938
 12
13.61379871219077
 22
1.785517174550391
 32
0.34938
 13
13.61379871219077
 23
2.052523282056117
 33
0.34938
  0
LWPOLYLINE
  5
8C
330
15
100
AcDbEntity
 67
     1
  8
BORDER
100
AcDbPolyline
 90
        2
 70
     0
 43
0.010918125
 38
0.34938
 10
13.72248229930681
 20
1.849096643946093
 42
0.3893977487990803
 10
13.66696292723041
 20
1.900062929797061
 42
0.3893977487990803
  0
LWPOLYLINE
  5
90
330
15
100
AcDbEntity
 67
     1
  8
BORDER
100
AcDbPolyline
 90
        2
 70
     0
 43
0.010918125
 38
0.34938
 10
13.54746528064477
 20
1.878246289623231
 42
0.1406948172011772
 10
13.54543268523569
 20
1.974540906766844
 42
0.1406948172011772
  0
SOLID
  5
94
330
15
100
AcDbEntity
 67
     1
  8
BORDER
100
AcDbTrace
 10
13.49966748109209
 20
1.808896059755376
 30
0.34938
 11
13.48052011780297
 21
1.834953817858322
 31
0.34938
 12
13.53796220767033
 22
1.851814720160228
 32
0.34938
 13
13.50579463734461
 23
1.885536524764041
 33
0.34938
  0
SOLID
  5
95
330
15
100
AcDbEntity
 67
     1
  8
BORDER
100
AcDbTrace
 10
13.53796220767033
 20
1.851814720160228
 30
0.34938
 11
13.50579463734461
 21
1.885536524764041
 31
0.34938
 12
13.55481188736476
 22
1.933053613069411
 32
0.34938
 13
13.50732642640774
 23
1.937652040969932
 33
0.34938
  0
SOLID
  5
96
330
15
100
AcDbEntity
 67
     1
  8
BORDER
100
AcDbTrace
 10
13.42843928965656
 20
1.784371110952602
 30
0.34938
 11
13.42843928965656
 21
1.818859320206502
 31
0.34938
 12
13.49966748109209
 22
1.808896059755376
 32
0.34938
 13
13.48052011780297
 23
1.834953817858322
 33
0.34938
  0
LWPOLYLINE
  5
97
330
15
100
AcDbEntity
 67
     1
  8
BORDER
100
AcDbPolyline
 90
        2
 70
     0
 43
0.010918125
 38
0.34938
 10
13.72669549107888
 20
1.7999185422356
 42
0.1148360225250129
 10
13.7304582381595
 20
1.788336993945204
 42
0.1148360225250129
  0
LWPOLYLINE
  5
9B
330
15
100
AcDbEntity
 67
     1
  8
BORDER
100
AcDbPolyline
 90
        2
 70
     0
 43
0.010918125
 38
0.34938
 10
13.70870212454998
 20
2.053011237050389
 10
13.55803850816131
 20
2.053011237050389
  0
SOLID
  5
9F
330
15
100
AcDbEntity
 67
     1
  8
BORDER
100
AcDbTrace
 10
13.55481188736476
 20
1.933053613069411
 30
0.34938
 11
13.50732642640774
 21
1.937652040969932
 31
0.34938
 12
13.53183505141781
 22
2.010460482728163
 32
0.34938
 13
13.49124264124487
 23
1.991300366475997
 33
0.34938
  0
SOLID
  5
A0
330
15
100
AcDbEntity
 67
     1
  8
BORDER
100
AcDbTrace
 10
13.53183505141781
 20
2.010460482728163
 30
0.34938
 11
13.49124264124487
 21
1.991300366475997
 31
0.34938
 12
13.47745653967671
 22
2.053379143133015
 32
0.34938
 13
13.46367043810854
 23
2.014292505978596
 33
0.34938
  0
SOLID
  5
A1
330
15
100
AcDbEntity
 67
     1
  8
BORDER
100
AcDbTrace
 10
13.47745653967671
 20
2.053379143133015
 30
0.34938
 11
13.46367043810854
 21
2.014292505978596
 31
0.34938
 12
13.42743387901695
 22
2.064008478898216
 32
0.34938
 13
13.42628085961306
 23
2.024779708517782
 33
0.34938
  0
LWPOLYLINE
  5
A2
330
15
100
AcDbEntity
 67
     1
  8
BORDER
100
AcDbPolyline
 90
        2
 70
     0
 43
0.010918125
 38
0.34938
 10
13.68355514940649
 20
1.930291125371785
 42
1.0
 10
13.68355514940649
 20
2.022317450654885
 42
1.0
  0
SOLID
  5
A6
330
15
100
AcDbEntity
 67
     1
  8
BORDER
100
AcDbTrace
 10
13.61379871219077
 20
2.016858388154885
 30
0.34938
 11
13.61379871219077
 21
2.052523282056117
 31
0.34938
 12
13.68355514940649
 22
2.016858388154885
 32
0.34938
 13
13.70870212454998
 23
2.05847029955039
 33
0.34938
  0
SOLID
  5
A7
330
15
100
AcDbEntity
 67
     1
  8
BORDER
100
AcDbTrace
 10
13.61379871219077
 20
1.935750187871786
 30
0.34938
 11
13.61379871219077
 21
1.89460386729706
 31
0.34938
 12
13.68355514940649
 22
1.935750187871786
 32
0.34938
 13
13.66696292723041
 23
1.89460386729706
 33
0.34938
  0
SOLID
  5
A8
330
15
100
AcDbEntity
 67
     1
  8
BORDER
100
AcDbTrace
 10
13.70559067528388
 20
1.881910734037631
 30
0.34938
 11
13.73511242813692
 21
1.902589724959968
 31
0.34938
 12
13.69077938418871
 22
1.89665167063717
 32
0.34938
 13
13.71755706645495
 23
1.915613873762918
 33
0.34938
  0
SOLID
  5
A9
330
15
100
AcDbEntity
 67
     1
  8
BORDER
100
AcDbTrace
 10
13.69077938418871
 20
1.89665167063717
 30
0.34938
 11
13.71755706645495
 21
1.915613873762918
 31
0.34938
 12
13.66696292723041
 22
1.89460386729706
 32
0.34938
 13
13.68355514940649
 23
1.935750187871786
 33
0.34938
  0
SOLID
  5
AA
330
15
100
AcDbEntity
 67
     1
  8
BORDER
100
AcDbTrace
 10
13.70698119262841
 20
2.019874139830569
 30
0.34938
 11
13.72619528998651
 21
2.050976469603772
 31
0.34938
 12
13.68355514940649
 22
2.016858388154885
 32
0.34938
 13
13.70870212454998
 23
2.05847029955039
 33
0.34938
  0
SOLID
  5
AB
330
15
100
AcDbEntity
 67
     1
  8
BORDER
100
AcDbTrace
 10
13.71225696802393
 20
1.934785639621091
 30
0.34938
 11
13.7331170282676
 21
1.925060476938988
 31
0.34938
 12
13.68355514940649
 22
1.935750187871786
 32
0.34938
 13
13.71755706645495
 23
1.915613873762918
 33
0.34938
  0
TEXT
  5
AC
330
15
100
AcDbEntity
 67
     1
  8
BORDER
100
AcDbText
 10
14.96566408206515
 20
1.960207174550391
 30
0.34938
 40
0.10918125
  1
PO BOX 366
100
AcDbText
  0
TEXT
  5
AD
330
15
100
AcDbEntity
 67
     1
  8
BORDER
100
AcDbText
 10
14.96566408206515
 20
1.778238424550391
 30
0.34938
 40
0.10918125
  1
NEWTON NJ
100
AcDbText
  0
ARC
  5
AE
330
15
100
AcDbEntity
 67
     1
  8
BORDER
100
AcDbCircle
 10
14.35698039297331
 20
1.86049474977649
 30
0.34938
 40
0.0698077107315333
100
AcDbArc
 50
297.4526478761237
 51
341.3323115150402
  0
ARC
  5
AF
330
15
100
AcDbEntity
 67
     1
  8
BORDER
100
AcDbCircle
 10
14.3667064966345
 20
1.989406402276618
 30
0.34938
 40
0.0521027944074
100
AcDbArc
 50
313.1575629115595
 51
358.653260821401
  0
ARC
  5
B0
330
15
100
AcDbEntity
 67
     1
  8
BORDER
100
AcDbCircle
 10
14.35737587116217
 20
1.989625759333454
 30
0.34938
 40
0.0614359979958454
100
AcDbArc
 50
358.6532608214001
 51
58.67020583628288
  0
LWPOLYLINE
  5
B1
330
15
100
AcDbEntity
 67
     1
  8
BORDER
100
AcDbPolyline
 90
       14
 70
     0
 43
0.0
 38
0.34938
 10
14.42643102492241
 20
1.867546430389043
 10
14.47019754528921
 20
1.867546430389043
 42
0.3020440864755188
 10
14.49818697213907
 20
1.826310524701669
 42
0.2653699712401423
 10
14.57323081962174
 20
1.8361963033414
 42
0.6356064402471244
 10
14.56111833546519
 20
1.892651651767805
 42
-0.0009437836138568
 10
14.47164591844057
 20
1.9135026974426
 42
-0.3442454331168749
 10
14.41884983470054
 20
1.979210164493164
 42
-0.322222187521162
 10
14.47299648158249
 20
2.056741546961005
 42
-0.1417364340760132
 10
14.56555016742244
 20
2.061941491426215
 42
-0.3337744805077131
 10
14.6319602668006
 20
1.983260955327901
 10
14.57798716530984
 20
1.983260955327903
 42
0.3019792396306431
 10
14.55220295268236
 20
2.019093532533863
 42
0.1972875622237244
 10
14.49496494064884
 20
2.017429616782655
 42
0.728374493267646
 10
14.50147237046867
 20
1.956771006894898
 42
0.0019568917075044
  0
ARC
  5
C1
330
15
100
AcDbEntity
 67
     1
  8
BORDER
100
AcDbCircle
 10
14.35698039297331
 20
1.86049474977649
 30
0.34938
 40
0.0698077107315333
100
AcDbArc
 50
5.797666812800194
 51
41.82143111053831
  0
LINE
  5
C2
330
15
100
AcDbEntity
 67
     1
  8
BORDER
100
AcDbLine
 10
14.04308659943638
 20
1.88514506517539
 30
0.34938
 11
14.12227409739379
 21
1.88514506517539
 31
0.34938
  0
LINE
  5
C3
330
15
100
AcDbEntity
 67
     1
  8
BORDER
100
AcDbLine
 10
14.08268034841509
 20
2.013669851097411
 30
0.34938
 11
14.04308659943638
 21
1.88514506517539
 31
0.34938
  0
LWPOLYLINE
  5
C4
330
15
100
AcDbEntity
 67
     1
  8
BORDER
100
AcDbPolyline
 90
        4
 70
     0
 43
0.0
 38
0.34938
 10
14.13488711686316
 20
1.84420209642539
 10
14.03047357996701
 20
1.84420209642539
 10
14.01239491872759
 20
1.785517174550391
 10
13.95507476247759
 20
1.785517174550391
  0
LWPOLYLINE
  5
CA
330
15
100
AcDbEntity
 67
     1
  8
BORDER
100
AcDbPolyline
 90
        4
 70
     0
 43
0.0
 38
0.34938
 10
13.97154748357134
 20
1.83191920580039
 10
14.05197312185259
 20
2.05847029955039
 10
14.11338757497758
 20
2.05847029955039
 10
14.2034327564292
 20
1.80482190109514
  0
LINE
  5
D0
330
15
100
AcDbEntity
 67
     1
  8
BORDER
100
AcDbLine
 10
13.83770491872759
 20
1.83191920580039
 30
0.34938
 11
13.83770491872759
 21
2.05847029955039
 31
0.34938
  0
LINE
  5
D1
330
15
100
AcDbEntity
 67
     1
  8
BORDER
100
AcDbLine
 10
13.78038476247759
 20
2.05847029955039
 30
0.34938
 11
13.78038476247759
 21
1.785517174550391
 31
0.34938
  0
LINE
  5
D2
330
15
100
AcDbEntity
 67
     1
  8
BORDER
100
AcDbLine
 10
13.78038476247759
 20
1.785517174550391
 30
0.34938
 11
13.97418148122759
 21
1.785517174550391
 31
0.34938
  0
LINE
  5
D3
330
15
100
AcDbEntity
 67
     1
  8
BORDER
100
AcDbLine
 10
13.97154748357134
 20
1.83191920580039
 30
0.34938
 11
13.83770491872759
 21
1.83191920580039
 31
0.34938
  0
LWPOLYLINE
  5
D4
330
15
100
AcDbEntity
 67
     1
  8
BORDER
100
AcDbPolyline
 90
        2
 70
     0
 43
0.010918125
 38
0.34938
 10
13.76945740645415
 20
1.803068464604789
 42
0.0950669764493849
 10
13.77381747316102
 20
1.788338225349108
 42
0.1404915454274296
  0
LINE
  5
D8
330
15
100
AcDbEntity
 67
     1
  8
BORDER
100
AcDbLine
 10
13.83770491872759
 20
2.05847029955039
 30
0.34938
 11
13.78038476247759
 21
2.05847029955039
 31
0.34938
  0
ARC
  5
D9
330
15
100
AcDbEntity
 67
     1
  8
BORDER
100
AcDbCircle
 10
14.33057026890336
 20
1.868797387211134
 30
0.34938
 40
0.0381839279642565
100
AcDbArc
 50
313.2275081247476
 51
90.0
  0
LINE
  5
DA
330
15
100
AcDbEntity
 67
     1
  8
BORDER
100
AcDbLine
 10
14.2580233814292
 20
1.90698131517539
 30
0.34938
 11
14.2580233814292
 21
1.82782490892539
 31
0.34938
  0
LINE
  5
DB
330
15
100
AcDbEntity
 67
     1
  8
BORDER
100
AcDbLine
 10
14.2034327564292
 20
2.05847029955039
 30
0.34938
 11
14.2034327564292
 21
1.804821901095142
 31
0.34938
  0
LINE
  5
DC
330
15
100
AcDbEntity
 67
     1
  8
BORDER
100
AcDbLine
 10
14.2034327564292
 20
1.785517174550391
 30
0.34938
 11
14.3358150220542
 21
1.785517174550391
 31
0.34938
  0
LWPOLYLINE
  5
DD
330
15
100
AcDbEntity
 67
     1
  8
BORDER
100
AcDbPolyline
 90
        3
 70
     0
 43
0.0
 38
0.34938
 10
14.21028593435259
 20
1.785517174550391
 10
14.15296577810259
 20
1.78551717455039
 10
14.13488711686316
 20
1.84420209642539
  0
ARC
  5
E2
330
15
100
AcDbEntity
 67
     1
  8
BORDER
100
AcDbCircle
 10
14.3235321314292
 20
1.876285035163541
 30
0.34938
 40
0.0484601262381522
100
AcDbArc
 50
270.0
 51
313.2275081247473
  0
LINE
  5
E3
330
15
100
AcDbEntity
 67
     1
  8
BORDER
100
AcDbLine
 10
14.2580233814292
 20
1.82782490892539
 30
0.34938
 11
14.3235321314292
 21
1.82782490892539
 31
0.34938
  0
ARC
  5
E4
330
15
100
AcDbEntity
 67
     1
  8
BORDER
100
AcDbCircle
 10
14.33581502205421
 20
1.901235220604438
 30
0.34938
 40
0.115718046054048
100
AcDbArc
 50
269.9999999999952
 51
297.4526478761186
  0
LINE
  5
E5
330
15
100
AcDbEntity
 67
     1
  8
BORDER
100
AcDbLine
 10
14.33095702100227
 20
2.05847029955039
 30
0.34938
 11
14.2034327564292
 21
2.05847029955039
 31
0.34938
  0
LINE
  5
E6
330
15
100
AcDbEntity
 67
     1
  8
BORDER
100
AcDbLine
 10
14.12227409739379
 20
1.88514506517539
 30
0.34938
 11
14.08268034841509
 21
2.013669851097411
 31
0.34938
  0
LINE
  5
E7
330
15
100
AcDbEntity
 67
     1
  8
BORDER
100
AcDbLine
 10
14.33057026890336
 20
1.90698131517539
 30
0.34938
 11
14.2580233814292
 21
1.90698131517539
 31
0.34938
  0
ARC
  5
E8
330
15
100
AcDbEntity
 67
     1
  8
BORDER
100
AcDbCircle
 10
14.32704356404522
 20
1.98340819017539
 30
0.34938
 40
0.034119140625
100
AcDbArc
 50
270.0
 51
90.00000482967505
  0
LINE
  5
E9
330
15
100
AcDbEntity
 67
     1
  8
BORDER
100
AcDbLine
 10
14.2580233814292
 20
1.949289049550389
 30
0.34938
 11
14.32704356404522
 21
1.949289049550389
 31
0.34938
  0
LINE
  5
EA
330
15
100
AcDbEntity
 67
     1
  8
BORDER
100
AcDbLine
 10
14.2580233814292
 20
2.01752733080039
 30
0.34938
 11
14.2580233814292
 21
1.949289049550389
 31
0.34938
  0
LINE
  5
EB
330
15
100
AcDbEntity
 67
     1
  8
BORDER
100
AcDbLine
 10
14.32704356116918
 20
2.01752733080039
 30
0.34938
 11
14.2580233814292
 21
2.01752733080039
 31
0.34938
  0
ARC
  5
EC
330
15
100
AcDbEntity
 67
     1
  8
BORDER
100
AcDbCircle
 10
14.33095702100227
 20
1.946225240936001
 30
0.34938
 40
0.1122450586143883
100
AcDbArc
 50
58.67020583628413
 51
90.00000000000101
  0
ARC
  5
ED
330
15
100
AcDbEntity
 67
     1
  8
BORDER
100
AcDbCircle
 10
14.335982094032
 20
1.841705965809933
 30
0.34938
 40
0.097984775187765
100
AcDbArc
 50
41.8214311105379
 51
67.21116987831337
  0
ARC
  5
EE
330
15
100
AcDbEntity
 67
     1
  8
BORDER
100
AcDbCircle
 10
14.3262616626792
 20
2.032539752675396
 30
0.34938
 40
0.1112320638963407
100
AcDbArc
 50
295.3783953421117
 51
313.157562911559
  0
SOLID
  5
EF
330
15
100
AcDbEntity
 67
     1
  8
BORDER
100
AcDbTrace
 10
14.68358586123249
 20
1.778584002598611
 30
0.34938
 11
14.68358586123249
 21
1.805547404098611
 31
0.34938
 12
14.81198301123249
 22
1.778584002598611
 32
0.34938
 13
14.81198301123249
 23
1.805547404098611
 33
0.34938
  0
SOLID
  5
F0
330
15
100
AcDbEntity
 67
     1
  8
BORDER
100
AcDbTrace
 10
14.81198300317886
 20
1.828016904124119
 30
0.34938
 11
14.68358585317887
 21
1.828016904124119
 31
0.34938
 12
14.81198300317886
 22
1.854980305624119
 32
0.34938
 13
14.68358585317887
 23
1.854980305624119
 33
0.34938
  0
SOLID
  5
F1
330
15
100
AcDbEntity
 67
     1
  8
BORDER
100
AcDbTrace
 10
14.68358585317887
 20
1.937154481624119
 30
0.34938
 11
14.81198300317886
 21
1.937154481624119
 31
0.34938
 12
14.68358585317887
 22
1.910191080124119
 32
0.34938
 13
14.81198300317886
 23
1.910191080124119
 33
0.34938
  0
SOLID
  5
F2
330
15
100
AcDbEntity
 67
     1
  8
BORDER
100
AcDbTrace
 10
14.68358585317887
 20
1.855622291374119
 30
0.34938
 11
14.81198020563362
 21
1.936463179956739
 31
0.34938
 12
14.68359542125173
 22
1.829892083039973
 32
0.34938
 13
14.81198300317886
 23
1.909549094374119
 33
0.34938
  0
LWPOLYLINE
  5
F3
330
15
100
AcDbEntity
 67
     1
  8
BORDER
100
AcDbPolyline
 90
        6
 70
     0
 43
0.005135886
 38
0.34938
 10
14.72273590788286
 20
2.041629137778534
 42
0.3426274439635524
 10
14.69797299314349
 20
2.015296590735352
 42
0.2942809489964497
 10
14.71561875406418
 20
1.981227674966115
 42
0.2735375373643303
 10
14.77984072903651
 20
1.982095888727541
 42
0.208169861593478
 10
14.79616360783087
 20
2.00531220663543
 42
0.4189849082168211
 10
14.77099783364742
 20
2.042799115605858
 42
0.4189849082168211
  0
LWPOLYLINE
  5
FB
330
15
100
AcDbEntity
 67
     1
  8
BORDER
100
AcDbPolyline
 90
        2
 70
     0
 43
0.005135886
 38
0.34938
 10
14.71987288846481
 20
1.957300182363201
 42
0.2706611322925477
 10
14.79279307378632
 20
1.968663737149664
 42
0.2706611322925477
  0
SOLID
  5
FF
330
15
100
AcDbEntity
 67
     1
  8
BORDER
100
AcDbTrace
 10
14.72525016850296
 20
1.975351317215571
 30
0.34938
 11
14.71207255485138
 21
1.959595737629593
 31
0.34938
 12
14.75160539580608
 22
1.973234896077156
 32
0.34938
 13
14.75301728298304
 23
1.951365210980203
 33
0.34938
  0
LWPOLYLINE
  5
100
330
15
100
AcDbEntity
 67
     1
  8
BORDER
100
AcDbPolyline
 90
        7
 70
     0
 43
0.0
 38
0.34938
 10
14.50147237046867
 20
1.956771006894898
 42
0.0019568917075044
 10
14.57963685652496
 20
1.940846625041812
 42
-0.2136964031287707
 10
14.63279830283599
 20
1.903689761886574
 42
-0.2075585583027768
 10
14.6401498171572
 20
1.847639316246693
 42
-0.2311984101377718
 10
14.58844077255892
 20
1.79024123256246
 42
-0.176335766587305
 10
14.48050779086154
 20
1.786570389405472
 42
-0.2115906095274752
 10
14.42311558526811
 20
1.838150783751926
  0
LWPOLYLINE
  5
109
330
15
100
AcDbEntity
 67
     1
  8
BORDER
100
AcDbPolyline
 90
        2
 70
     0
 43
0.005135886
 38
0.34938
 10
14.68556843842118
 20
2.030528298635224
 42
0.3986208060685013
 10
14.71987288846481
 20
1.957300182363201
 42
0.3986208060685013
  0
SOLID
  5
10D
330
15
100
AcDbEntity
 67
     1
  8
BORDER
100
AcDbTrace
 10
14.71419038561682
 20
2.039314267176548
 30
0.34938
 11
14.70124808649475
 21
2.053423741432647
 31
0.34938
 12
14.69818899761135
 22
2.022147740164963
 32
0.34938
 13
14.68336418225334
 23
2.028261845675938
 33
0.34938
  0
SOLID
  5
10E
330
15
100
AcDbEntity
 67
     1
  8
BORDER
100
AcDbTrace
 10
14.69818899761135
 20
2.022147740164963
 30
0.34938
 11
14.68336418225334
 21
2.028261845675938
 31
0.34938
 12
14.70077745743576
 22
1.99486942326984
 32
0.34938
 13
14.68524669848927
 23
1.988520159854595
 33
0.34938
  0
SOLID
  5
10F
330
15
100
AcDbEntity
 67
     1
  8
BORDER
100
AcDbTrace
 10
14.70077745743576
 20
1.99486942326984
 30
0.34938
 11
14.68524669848927
 21
1.988520159854595
 31
0.34938
 12
14.72525016850296
 22
1.975351317215571
 32
0.34938
 13
14.71207255485138
 23
1.959595737629593
 33
0.34938
  0
LWPOLYLINE
  5
110
330
15
100
AcDbEntity
 67
     1
  8
BORDER
100
AcDbPolyline
 90
        2
 70
     0
 43
0.005135886
 38
0.34938
 10
14.72266033643518
 20
2.061556010215114
 42
0.2841209316902218
 10
14.68556843842118
 20
2.030528298635224
 42
0.2888447634665965
  0
SOLID
  5
114
330
15
100
AcDbEntity
 67
     1
  8
BORDER
100
AcDbTrace
 10
14.71419038561682
 20
2.039314267176548
 30
0.34938
 11
14.70124808649475
 21
2.053423741432647
 31
0.34938
 12
14.71961021058642
 22
2.040702457385615
 32
0.34938
 13
14.71794023650614
 23
2.062928672208393
 33
0.34938
  0
SOLID
  5
115
330
15
100
AcDbEntity
 67
     1
  8
BORDER
100
AcDbTrace
 10
14.71961021058642
 20
2.040702457385615
 30
0.34938
 11
14.71794023650614
 21
2.062928672208393
 31
0.34938
 12
14.72313469261889
 22
2.039092348077837
 32
0.34938
 13
14.72313469261889
 23
2.064211218836949
 33
0.34938
  0
LWPOLYLINE
  5
116
330
15
100
AcDbEntity
 67
     1
  8
BORDER
100
AcDbPolyline
 90
        2
 70
     0
 43
0.005135886
 38
0.34938
 10
14.79279307378632
 20
1.968663737149664
 42
0.1790006504245718
 10
14.81172373852431
 20
2.000730215562054
 42
0.1790006504245718
  0
LWPOLYLINE
  5
11A
330
15
100
AcDbEntity
 67
     1
  8
BORDER
100
AcDbPolyline
 90
        2
 70
     0
 43
0.005135886
 38
0.34938
 10
14.81172373852431
 20
2.000730215562054
 42
0.1521907920671271
 10
14.80724964369983
 20
2.036917043295302
 42
0.1521907920671271
  0
SOLID
  5
11E
330
15
100
AcDbEntity
 67
     1
  8
BORDER
100
AcDbTrace
 10
14.75160539580608
 20
1.973234896077156
 30
0.34938
 11
14.75301728298304
 21
1.951365210980203
 31
0.34938
 12
14.78575446804974
 22
1.984095777671869
 32
0.34938
 13
14.79537389829165
 23
1.968247272785013
 33
0.34938
  0
SOLID
  5
11F
330
15
100
AcDbEntity
 67
     1
  8
BORDER
100
AcDbTrace
 10
14.78575446804974
 20
1.984095777671869
 30
0.34938
 11
14.79537389829165
 21
1.968247272785013
 31
0.34938
 12
14.79693380589844
 22
2.009297498557526
 32
0.34938
 13
14.81357282037093
 23
2.000983528780815
 33
0.34938
  0
SOLID
  5
120
330
15
100
AcDbEntity
 67
     1
  8
BORDER
100
AcDbTrace
 10
14.79693380589844
 20
2.009297498557526
 30
0.34938
 11
14.81357282037093
 21
2.000983528780815
 31
0.34938
 12
14.79017420626899
 22
2.031641292332439
 32
0.34938
 13
14.80603326693808
 23
2.04229356610885
 33
0.34938
  0
SOLID
  5
121
330
15
100
AcDbEntity
 67
     1
  8
BORDER
100
AcDbTrace
 10
14.79017420626899
 20
2.031641292332439
 30
0.34938
 11
14.80603326693808
 21
2.04229356610885
 31
0.34938
 12
14.77405056801999
 22
2.041138692338461
 32
0.34938
 13
14.77678102514639
 23
2.064717642286565
 33
0.34938
  0
LWPOLYLINE
  5
122
330
15
100
AcDbEntity
 67
     1
  8
BORDER
100
AcDbPolyline
 90
        2
 70
     0
 43
0.005135886
 38
0.34938
 10
14.80724964369983
 20
2.036917043295302
 42
0.2619660936757589
 10
14.77087752764552
 20
2.063620803043552
 42
0.2656465770789468
  0
SOLID
  5
126
330
15
100
AcDbEntity
 67
     1
  8
BORDER
100
AcDbTrace
 10
14.77405056801999
 20
2.041138692338461
 30
0.34938
 11
14.77678102514639
 21
2.064717642286565
 31
0.34938
 12
14.77052282352051
 22
2.040275487933125
 32
0.34938
 13
14.77052282352051
 23
2.066246075205522
 33
0.34938
  0
LINE
  5
127
330
15
100
AcDbEntity
 67
     1
  8
BORDER
100
AcDbLine
 10
9.516875251891164
 20
11.72762959049117
 30
0.11646
 11
16.12081945413629
 21
11.72762959049117
 31
0.11646
  0
LINE
  5
128
330
15
100
AcDbEntity
 67
     1
  8
BORDER
100
AcDbLine
 10
16.12081945413629
 20
11.51912959049117
 30
0.11646
 11
16.12081945413629
 21
11.72762959049117
 31
0.11646
  0
VIEWPORT
  5
129
330
15
100
AcDbEntity
 67
     1
  8
VIEW-BORDER
100
AcDbViewport
 10
8.136187540370114
 20
5.916480691494752
 30
0.0
 40
15.7754389537662
 41
11.48703289013861
 68
     2
 69
     2
 12
9.895573430652163
 22
11.78814715834273
 13
0.0
 23
0.0
 14
0.005
 24
0.005
 15
0.25
 25
0.25
 16
0.0
 26
0.0
 36
1.0
 17
0.0
 27
0.0
 37
0.0
 42
50.0
 43
0.0
 44
0.0
 45
9.435169776730024
 50
0.0
 51
0.0
 72
   100
 90
    32800
  1

281
     0
 71
     1
 74
     0
110
0.0
120
0.0
130
0.0
111
1.0
121
0.0
131
0.0
112
0.0
122
1.0
132
0.0
 79
     0
146
0.0
  0
TEXT
  5
12B
330
15
100
AcDbEntity
 67
     1
  8
BORDER
100
AcDbText
 10
15.15433990943102
 20
0.9681910284999242
 30
0.0
 40
0.1
  1
PDA155
 72
     1
 11
15.42100657609769
 21
0.9681910284999242
 31
0.0
100
AcDbText
  0
TEXT
  5
151
330
15
100
AcDbEntity
 67
     1
  8
BORDER
100
AcDbText
 10
13.56757693680319
 20
0.4490422188705966
 30
0.0
 40
0.0800000000000001
  1
A
100
AcDbText
  0
TEXT
  5
66F
330
15
100
AcDbEntity
 67
     1
  8
BORDER
100
AcDbText
 10
13.92969756712513
 20
0.1440422188705966
 30
0.0
 40
0.1099999999999999
  1
PDA155
100
AcDbText
  0
TEXT
  5
674
330
15
100
AcDbEntity
 67
     1
  8
SHEET3
100
AcDbText
 10
14.25648223819497
 20
0.4490422188705966
 30
0.0
 40
0.0800000000000001
  1
3
100
AcDbText
  0
TEXT
  5
675
330
15
100
AcDbEntity
 67
     1
  8
SHEET1
100
AcDbText
 10
14.2725573399672
 20
0.4490422188705966
 30
0.0
 40
0.0800000000000001
  1
1
100
AcDbText
  0
INSERT
  5
25FC
330
15
100
AcDbEntity
 67
     1
  8
0
100
AcDbBlockReference
  2
A$C7304
 10
11.6203807149215
 20
0.2426527095727771
 30
0.0
 41
2.5
 42
2.5
 43
2.5
  0
TEXT
  5
2605
330
15
100
AcDbEntity
 67
     1
  8
BORDER
100
AcDbText
 10
15.04956171354246
 20
0.7246499818587005
 30
0.0
 40
0.1
  1
PDA155-EC
100
AcDbText
  0
TEXT
  5
260C
330
15
100
AcDbEntity
 67
     1
  8
BORDER
100
AcDbText
 10
14.36148997801248
 20
0.7390422188705967
 30
0.0
 40
0.1
  1
EC
100
AcDbText
  0
INSERT
  5
261F
330
15
100
AcDbEntity
 67
     1
  8
BORDER
100
AcDbBlockReference
  2
Copyright00
 10
1.318224184283018
 20
11.2756338720763
 30
0.0
 41
0.7
 42
0.7
 43
0.7
  0
INSERT
  5
2626
330
15
100
AcDbEntity
 67
     1
  8
BORDER
100
AcDbBlockReference
  2
Esd-info
 10
4.055917513894819
 20
0.570229549023992
 30
0.0
 41
0.8
 42
0.8
 43
0.8
  0
ENDSEC
  0
SECTION
  2
OBJECTS
  0
DICTIONARY
  5
C
330
0
100
AcDbDictionary
281
     1
  3
ACAD_GROUP
350
D
  3
ACAD_LAYOUT
350
2610
  3
ACAD_MLINESTYLE
350
E
  3
ACAD_PLOTSETTINGS
350
2611
  3
ACAD_PLOTSTYLENAME
350
260E
  0
DICTIONARY
  5
D
102
{ACAD_REACTORS
330
C
102
}
330
C
100
AcDbDictionary
281
     1
  0
DICTIONARY
  5
2610
102
{ACAD_REACTORS
330
C
102
}
330
C
100
AcDbDictionary
281
     1
  3
Layout1
350
2613
  3
Model
350
2612
  0
DICTIONARY
  5
E
102
{ACAD_REACTORS
330
C
102
}
330
C
100
AcDbDictionary
281
     1
  3
STANDARD
350
1B
  0
DICTIONARY
  5
2611
102
{ACAD_REACTORS
330
C
102
}
330
C
100
AcDbDictionary
281
     1
  0
ACDBDICTIONARYWDFLT
  5
260E
102
{ACAD_REACTORS
330
C
102
}
330
C
100
AcDbDictionary
281
     1
  3
Normal
350
260F
100
AcDbDictionaryWithDefault
340
260F
  0
LAYOUT
  5
2613
102
{ACAD_REACTORS
330
2610
102
}
330
2610
100
AcDbPlotSettings
  1

  2
\\ntsrv1\PRINT15
  4
Letter
  6

 40
6.349999904632568
 41
4.233341693878173
 42
6.349990844726562
 43
4.23333740234375
 44
215.8999938964843
 45
279.3999938964843
 46
0.0
 47
0.0
 48
0.0
 49
0.0
140
0.0
141
0.0
142
1.0
143
1.50421234428626
 70
   688
 72
     0
 73
     1
 74
     1
  7

 75
     0
147
0.6647997563631841
148
-2.678969615350184
149
-1.608996822627231
100
AcDbLayout
  1
Layout1
 70
     0
 71
     1
 10
-0.145231053652914
 20
-0.3127067488243171
 11
16.4011043720399
 21
12.47309781615285
 12
0.0
 22
0.0
 32
0.0
 14
0.1056659004338574
 24
0.0638038461537676
 34
0.0
 15
16.14990892582951
 25
11.76051951376358
 35
0.34938
146
0.0
 13
4.789028513264677
 23
5.486174343911555
 33
0.0
 16
1.0
 26
0.0
 36
0.0
 17
0.0
 27
1.0
 37
0.0
 76
     0
330
15
331
31
  0
LAYOUT
  5
2612
102
{ACAD_REACTORS
330
2610
102
}
330
2610
100
AcDbPlotSettings
  1

  2
\\ntsrv1\PRINT15
  4

  6

 40
0.0
 41
0.0
 42
0.0
 43
0.0
 44
0.0
 45
0.0
 46
0.0
 47
0.0
 48
0.0
 49
0.0
140
0.0
141
0.0
142
1.0
143
1.0
 70
  1712
 72
     0
 73
     0
 74
     0
  7

 75
     0
147
1.0
148
0.0
149
0.0
100
AcDbLayout
  1
Model
 70
     1
 71
     0
 10
0.0
 20
0.0
 11
12.0
 21
9.0
 12
0.0
 22
0.0
 32
0.0
 14
0.0
 24
0.0
 34
0.0
 15
0.0
 25
0.0
 35
0.0
146
0.0
 13
0.0
 23
0.0
 33
0.0
 16
1.0
 26
0.0
 36
0.0
 17
0.0
 27
1.0
 37
0.0
 76
     0
330
18
  0
MLINESTYLE
  5
1B
102
{ACAD_REACTORS
330
E
102
}
330
E
100
AcDbMlineStyle
  2
STANDARD
 70
     0
  3

 62
     0
 51
90.0
 52
90.0
 71
     2
 49
0.5
 62
   256
  6
BYLAYER
 49
-0.5
 62
   256
  6
BYLAYER
  0
ACDBPLACEHOLDER
  5
260F
102
{ACAD_REACTORS
330
260E
102
}
330
260E
  0
ENDSEC
  0
EOF
