ISO-10303-21;
HEADER;
FILE_DESCRIPTION (( 'STEP AP203' ),
    '1' );
FILE_NAME ('Web Model 20161_22062.step',
    '2022-06-17T14:02:56',
    ( 'WC' ),
    ( 'Windows Central' ),
    'SwSTEP 2.0',
    'SolidWorks 2021',
    '' );
FILE_SCHEMA (( 'CONFIG_CONTROL_DESIGN' ));
ENDSEC;

DATA;
#1 = CC_DESIGN_SECURITY_CLASSIFICATION ( #46, ( #174 ) ) ;
#2 = PRODUCT ( 'Web Model 20161_22062', 'Web Model 20161_22062', '', ( #144 ) ) ;
#3 = CALENDAR_DATE ( 2022, 17, 6 ) ;
#4 = LOCAL_TIME ( 10, 2, 56.00000000000000000, #63 ) ;
#5 = CARTESIAN_POINT ( 'NONE',  ( 0.000000000000000000, 0.000000000000000000, 3.000000000000000000 ) ) ;
#6 = AXIS2_PLACEMENT_3D ( 'NONE', #62, #168, #132 ) ;
#7 = COORDINATED_UNIVERSAL_TIME_OFFSET ( 5, 0, .BEHIND. ) ;
#8 = EDGE_CURVE ( 'NONE', #98, #43, #104, .T. ) ;
#9 = CALENDAR_DATE ( 2022, 17, 6 ) ;
#10 = DIRECTION ( 'NONE',  ( 1.000000000000000000, 0.000000000000000000, 0.000000000000000000 ) ) ;
#11 = ORIENTED_EDGE ( 'NONE', *, *, #41, .F. ) ;
#12 = DIRECTION ( 'NONE',  ( 1.000000000000000000, 0.000000000000000000, 0.000000000000000000 ) ) ;
#13 = AXIS2_PLACEMENT_3D ( 'NONE', #74, #128, #99 ) ;
#14 = EDGE_LOOP ( 'NONE', ( #136, #11, #95, #127 ) ) ;
#15 = PERSON_AND_ORGANIZATION_ROLE ( 'design_supplier' ) ;
#16 = CARTESIAN_POINT ( 'NONE',  ( 62.50000000000000000, 7.654042494670957804E-15, 0.000000000000000000 ) ) ;
#17 = AXIS2_PLACEMENT_3D ( 'NONE', #149, #97, #126 ) ;
#18 = APPROVAL_STATUS ( 'not_yet_approved' ) ;
#19 = PERSON_AND_ORGANIZATION ( #34, #70 ) ;
#20 = APPROVAL_ROLE ( '' ) ;
#21 = CC_DESIGN_PERSON_AND_ORGANIZATION_ASSIGNMENT ( #158, #140, ( #46 ) ) ;
#22 = MANIFOLD_SOLID_BREP ( 'Boss-Extrude1', #143 ) ;
#23 = DIRECTION ( 'NONE',  ( 0.000000000000000000, 0.000000000000000000, 1.000000000000000000 ) ) ;
#24 = ADVANCED_FACE ( 'NONE', ( #162 ), #151, .T. ) ;
#25 = ORIENTED_EDGE ( 'NONE', *, *, #58, .F. ) ;
#26 = CARTESIAN_POINT ( 'NONE',  ( -62.50000000000000000, 0.000000000000000000, 3.000000000000000000 ) ) ;
#27 = CARTESIAN_POINT ( 'NONE',  ( -62.50000000000000000, 0.000000000000000000, 3.000000000000000000 ) ) ;
#28 = VERTEX_POINT ( 'NONE', #42 ) ;
#29 = CC_DESIGN_APPROVAL ( #71, ( #54 ) ) ;
#30 = DIRECTION ( 'NONE',  ( 0.000000000000000000, 0.000000000000000000, 1.000000000000000000 ) ) ;
#31 = DIRECTION ( 'NONE',  ( -1.000000000000000000, 0.000000000000000000, 0.000000000000000000 ) ) ;
#32 = APPLICATION_PROTOCOL_DEFINITION ( 'international standard', 'config_control_design', 1994, #165 ) ;
#33 = COORDINATED_UNIVERSAL_TIME_OFFSET ( 5, 0, .BEHIND. ) ;
#34 = PERSON ( 'UNSPECIFIED', 'UNSPECIFIED', 'UNSPECIFIED', ('UNSPECIFIED'), ('UNSPECIFIED'), ('UNSPECIFIED') ) ;
#35 = AXIS2_PLACEMENT_3D ( 'NONE', #173, #37, #55 ) ;
#36 = DATE_AND_TIME ( #106, #109 ) ;
#37 = DIRECTION ( 'NONE',  ( -0.000000000000000000, -0.000000000000000000, -1.000000000000000000 ) ) ;
#38 =( NAMED_UNIT ( * ) PLANE_ANGLE_UNIT ( ) SI_UNIT ( $, .RADIAN. ) );
#39 = APPROVAL_PERSON_ORGANIZATION ( #19, #47, #103 ) ;
#40 = CARTESIAN_POINT ( 'NONE',  ( 62.50000000000000000, 7.654042494670957804E-15, 3.000000000000000000 ) ) ;
#41 = EDGE_CURVE ( 'NONE', #44, #28, #100, .T. ) ;
#42 = CARTESIAN_POINT ( 'NONE',  ( 62.50000000000000000, 7.654042494670957804E-15, 3.000000000000000000 ) ) ;
#43 = VERTEX_POINT ( 'NONE', #135 ) ;
#44 = VERTEX_POINT ( 'NONE', #26 ) ;
#45 = ORIENTED_EDGE ( 'NONE', *, *, #8, .T. ) ;
#46 = SECURITY_CLASSIFICATION ( '', '', #91 ) ;
#47 = APPROVAL ( #18, 'UNSPECIFIED' ) ;
#48 = COORDINATED_UNIVERSAL_TIME_OFFSET ( 5, 0, .BEHIND. ) ;
#49 = APPROVAL_PERSON_ORGANIZATION ( #114, #65, #60 ) ;
#50 = PERSON_AND_ORGANIZATION_ROLE ( 'creator' ) ;
#51 = UNCERTAINTY_MEASURE_WITH_UNIT (LENGTH_MEASURE( 1.000000000000000082E-05 ), #150, 'distance_accuracy_value', 'NONE');
#52 = APPROVAL_STATUS ( 'not_yet_approved' ) ;
#53 = DATE_AND_TIME ( #145, #141 ) ;
#54 = PRODUCT_DEFINITION ( 'UNKNOWN', '', #174, #115 ) ;
#55 = DIRECTION ( 'NONE',  ( -1.000000000000000000, 0.000000000000000000, 0.000000000000000000 ) ) ;
#56 =( GEOMETRIC_REPRESENTATION_CONTEXT ( 3 ) GLOBAL_UNCERTAINTY_ASSIGNED_CONTEXT ( ( #51 ) ) GLOBAL_UNIT_ASSIGNED_CONTEXT ( ( #150, #38, #59 ) ) REPRESENTATION_CONTEXT ( 'NONE', 'WORKASPACE' ) );
#57 = EDGE_LOOP ( 'NONE', ( #164, #72 ) ) ;
#58 = EDGE_CURVE ( 'NONE', #28, #44, #120, .T. ) ;
#59 =( NAMED_UNIT ( * ) SI_UNIT ( $, .STERADIAN. ) SOLID_ANGLE_UNIT ( ) );
#60 = APPROVAL_ROLE ( '' ) ;
#61 = APPLICATION_PROTOCOL_DEFINITION ( 'international standard', 'config_control_design', 1994, #123 ) ;
#62 = CARTESIAN_POINT ( 'NONE',  ( 0.000000000000000000, 0.000000000000000000, 0.000000000000000000 ) ) ;
#63 = COORDINATED_UNIVERSAL_TIME_OFFSET ( 5, 0, .BEHIND. ) ;
#64 = APPROVAL_STATUS ( 'not_yet_approved' ) ;
#65 = APPROVAL ( #52, 'UNSPECIFIED' ) ;
#66 = LOCAL_TIME ( 10, 2, 56.00000000000000000, #80 ) ;
#67 = DIRECTION ( 'NONE',  ( -0.000000000000000000, -0.000000000000000000, -1.000000000000000000 ) ) ;
#68 = VECTOR ( 'NONE', #67, 1000.000000000000000 ) ;
#69 = ORIENTED_EDGE ( 'NONE', *, *, #160, .F. ) ;
#70 = ORGANIZATION ( 'UNSPECIFIED', 'UNSPECIFIED', '' ) ;
#71 = APPROVAL ( #64, 'UNSPECIFIED' ) ;
#72 = ORIENTED_EDGE ( 'NONE', *, *, #58, .T. ) ;
#73 = ORIENTED_EDGE ( 'NONE', *, *, #8, .F. ) ;
#74 = CARTESIAN_POINT ( 'NONE',  ( 0.000000000000000000, 0.000000000000000000, 0.000000000000000000 ) ) ;
#75 = PERSON_AND_ORGANIZATION ( #34, #70 ) ;
#76 = LOCAL_TIME ( 10, 2, 56.00000000000000000, #33 ) ;
#77 = CC_DESIGN_PERSON_AND_ORGANIZATION_ASSIGNMENT ( #112, #79, ( #174 ) ) ;
#78 = PLANE ( 'NONE',  #6 ) ;
#79 = PERSON_AND_ORGANIZATION_ROLE ( 'creator' ) ;
#80 = COORDINATED_UNIVERSAL_TIME_OFFSET ( 5, 0, .BEHIND. ) ;
#81 = CC_DESIGN_PERSON_AND_ORGANIZATION_ASSIGNMENT ( #117, #50, ( #54 ) ) ;
#82 = DIRECTION ( 'NONE',  ( 1.000000000000000000, 0.000000000000000000, 0.000000000000000000 ) ) ;
#83 = CC_DESIGN_APPROVAL ( #65, ( #46 ) ) ;
#84 = DIRECTION ( 'NONE',  ( 1.000000000000000000, 0.000000000000000000, 0.000000000000000000 ) ) ;
#85 = CARTESIAN_POINT ( 'NONE',  ( 0.000000000000000000, 0.000000000000000000, 3.000000000000000000 ) ) ;
#86 = EDGE_CURVE ( 'NONE', #28, #98, #105, .T. ) ;
#87 = DIRECTION ( 'NONE',  ( -0.000000000000000000, -0.000000000000000000, -1.000000000000000000 ) ) ;
#88 = DIRECTION ( 'NONE',  ( -0.000000000000000000, -0.000000000000000000, -1.000000000000000000 ) ) ;
#89 = CC_DESIGN_DATE_AND_TIME_ASSIGNMENT ( #131, #169, ( #54 ) ) ;
#90 = CARTESIAN_POINT ( 'NONE',  ( 0.000000000000000000, 0.000000000000000000, 0.000000000000000000 ) ) ;
#91 = SECURITY_CLASSIFICATION_LEVEL ( 'unclassified' ) ;
#92 = DATE_AND_TIME ( #3, #4 ) ;
#93 = PERSON_AND_ORGANIZATION ( #34, #70 ) ;
#94 = FACE_OUTER_BOUND ( 'NONE', #14, .T. ) ;
#95 = ORIENTED_EDGE ( 'NONE', *, *, #163, .T. ) ;
#96 = ADVANCED_FACE ( 'NONE', ( #94 ), #118, .T. ) ;
#97 = DIRECTION ( 'NONE',  ( 0.000000000000000000, 0.000000000000000000, 1.000000000000000000 ) ) ;
#98 = VERTEX_POINT ( 'NONE', #16 ) ;
#99 = DIRECTION ( 'NONE',  ( 1.000000000000000000, 0.000000000000000000, 0.000000000000000000 ) ) ;
#100 = CIRCLE ( 'NONE', #111, 62.50000000000000000 ) ;
#101 = FACE_OUTER_BOUND ( 'NONE', #154, .T. ) ;
#102 = PERSON_AND_ORGANIZATION_ROLE ( 'design_owner' ) ;
#103 = APPROVAL_ROLE ( '' ) ;
#104 = CIRCLE ( 'NONE', #175, 62.50000000000000000 ) ;
#105 = LINE ( 'NONE', #40, #68 ) ;
#106 = CALENDAR_DATE ( 2022, 17, 6 ) ;
#107 = AXIS2_PLACEMENT_3D ( 'NONE', #5, #88, #31 ) ;
#108 = AXIS2_PLACEMENT_3D ( 'NONE', #85, #147, #82 ) ;
#109 = LOCAL_TIME ( 10, 2, 56.00000000000000000, #7 ) ;
#110 = EDGE_LOOP ( 'NONE', ( #25, #166, #45, #124 ) ) ;
#111 = AXIS2_PLACEMENT_3D ( 'NONE', #121, #23, #84 ) ;
#112 = PERSON_AND_ORGANIZATION ( #34, #70 ) ;
#113 = CIRCLE ( 'NONE', #13, 62.50000000000000000 ) ;
#114 = PERSON_AND_ORGANIZATION ( #34, #70 ) ;
#115 = DESIGN_CONTEXT ( 'detailed design', #165, 'design' ) ;
#116 = DATE_TIME_ROLE ( 'classification_date' ) ;
#117 = PERSON_AND_ORGANIZATION ( #34, #70 ) ;
#118 = CYLINDRICAL_SURFACE ( 'NONE', #35, 62.50000000000000000 ) ;
#119 = CC_DESIGN_APPROVAL ( #47, ( #174 ) ) ;
#120 = CIRCLE ( 'NONE', #108, 62.50000000000000000 ) ;
#121 = CARTESIAN_POINT ( 'NONE',  ( 0.000000000000000000, 0.000000000000000000, 3.000000000000000000 ) ) ;
#122 = ADVANCED_FACE ( 'NONE', ( #101 ), #78, .F. ) ;
#123 = APPLICATION_CONTEXT ( 'configuration controlled 3d designs of mechanical parts and assemblies' ) ;
#124 = ORIENTED_EDGE ( 'NONE', *, *, #163, .F. ) ;
#125 = CARTESIAN_POINT ( 'NONE',  ( 0.000000000000000000, 0.000000000000000000, 0.000000000000000000 ) ) ;
#126 = DIRECTION ( 'NONE',  ( 1.000000000000000000, 0.000000000000000000, -0.000000000000000000 ) ) ;
#127 = ORIENTED_EDGE ( 'NONE', *, *, #160, .T. ) ;
#128 = DIRECTION ( 'NONE',  ( 0.000000000000000000, 0.000000000000000000, 1.000000000000000000 ) ) ;
#129 = PRODUCT_DEFINITION_SHAPE ( 'NONE', 'NONE',  #54 ) ;
#130 = CC_DESIGN_PERSON_AND_ORGANIZATION_ASSIGNMENT ( #133, #15, ( #174 ) ) ;
#131 = DATE_AND_TIME ( #142, #76 ) ;
#132 = DIRECTION ( 'NONE',  ( 1.000000000000000000, 0.000000000000000000, -0.000000000000000000 ) ) ;
#133 = PERSON_AND_ORGANIZATION ( #34, #70 ) ;
#134 = DATE_AND_TIME ( #9, #66 ) ;
#135 = CARTESIAN_POINT ( 'NONE',  ( -62.50000000000000000, 0.000000000000000000, 0.000000000000000000 ) ) ;
#136 = ORIENTED_EDGE ( 'NONE', *, *, #86, .F. ) ;
#137 = CC_DESIGN_DATE_AND_TIME_ASSIGNMENT ( #53, #116, ( #46 ) ) ;
#138 = DIRECTION ( 'NONE',  ( 0.000000000000000000, 0.000000000000000000, 1.000000000000000000 ) ) ;
#139 = CYLINDRICAL_SURFACE ( 'NONE', #107, 62.50000000000000000 ) ;
#140 = PERSON_AND_ORGANIZATION_ROLE ( 'classification_officer' ) ;
#141 = LOCAL_TIME ( 10, 2, 56.00000000000000000, #48 ) ;
#142 = CALENDAR_DATE ( 2022, 17, 6 ) ;
#143 = CLOSED_SHELL ( 'NONE', ( #146, #96, #24, #122 ) ) ;
#144 = MECHANICAL_CONTEXT ( 'NONE', #123, 'mechanical' ) ;
#145 = CALENDAR_DATE ( 2022, 17, 6 ) ;
#146 = ADVANCED_FACE ( 'NONE', ( #157 ), #139, .T. ) ;
#147 = DIRECTION ( 'NONE',  ( 0.000000000000000000, 0.000000000000000000, 1.000000000000000000 ) ) ;
#148 = ADVANCED_BREP_SHAPE_REPRESENTATION ( 'Web Model 20161_22062', ( #22, #153 ), #56 ) ;
#149 = CARTESIAN_POINT ( 'NONE',  ( 0.000000000000000000, 0.000000000000000000, 3.000000000000000000 ) ) ;
#150 =( LENGTH_UNIT ( ) NAMED_UNIT ( * ) SI_UNIT ( .MILLI., .METRE. ) );
#151 = PLANE ( 'NONE',  #17 ) ;
#152 = PRODUCT_RELATED_PRODUCT_CATEGORY ( 'detail', '', ( #2 ) ) ;
#153 = AXIS2_PLACEMENT_3D ( 'NONE', #90, #138, #10 ) ;
#154 = EDGE_LOOP ( 'NONE', ( #69, #73 ) ) ;
#155 = LINE ( 'NONE', #27, #161 ) ;
#156 = SHAPE_DEFINITION_REPRESENTATION ( #129, #148 ) ;
#157 = FACE_OUTER_BOUND ( 'NONE', #110, .T. ) ;
#158 = PERSON_AND_ORGANIZATION ( #34, #70 ) ;
#159 = APPROVAL_DATE_TIME ( #134, #71 ) ;
#160 = EDGE_CURVE ( 'NONE', #43, #98, #113, .T. ) ;
#161 = VECTOR ( 'NONE', #87, 1000.000000000000000 ) ;
#162 = FACE_OUTER_BOUND ( 'NONE', #57, .T. ) ;
#163 = EDGE_CURVE ( 'NONE', #44, #43, #155, .T. ) ;
#164 = ORIENTED_EDGE ( 'NONE', *, *, #41, .T. ) ;
#165 = APPLICATION_CONTEXT ( 'configuration controlled 3d designs of mechanical parts and assemblies' ) ;
#166 = ORIENTED_EDGE ( 'NONE', *, *, #86, .T. ) ;
#167 = APPROVAL_PERSON_ORGANIZATION ( #93, #71, #20 ) ;
#168 = DIRECTION ( 'NONE',  ( 0.000000000000000000, 0.000000000000000000, 1.000000000000000000 ) ) ;
#169 = DATE_TIME_ROLE ( 'creation_date' ) ;
#170 = APPROVAL_DATE_TIME ( #36, #65 ) ;
#171 = CC_DESIGN_PERSON_AND_ORGANIZATION_ASSIGNMENT ( #75, #102, ( #2 ) ) ;
#172 = APPROVAL_DATE_TIME ( #92, #47 ) ;
#173 = CARTESIAN_POINT ( 'NONE',  ( 0.000000000000000000, 0.000000000000000000, 3.000000000000000000 ) ) ;
#174 = PRODUCT_DEFINITION_FORMATION_WITH_SPECIFIED_SOURCE ( 'ANY', '', #2, .NOT_KNOWN. ) ;
#175 = AXIS2_PLACEMENT_3D ( 'NONE', #125, #30, #12 ) ;
ENDSEC;
END-ISO-10303-21;
