ISO-10303-21;
HEADER;
FILE_DESCRIPTION (( 'STEP AP203' ),
    '1' );
FILE_NAME ('Web Model 45567_16001.step',
    '2020-10-21T18:30:13',
    ( '' ),
    ( '' ),
    'SwSTEP 2.0',
    'SolidWorks 2018',
    '' );
FILE_SCHEMA (( 'CONFIG_CONTROL_DESIGN' ));
ENDSEC;

DATA;
#1 = DATE_AND_TIME ( #108, #43 ) ;
#2 = EDGE_CURVE ( 'NONE', #164, #147, #19, .T. ) ;
#3 = CARTESIAN_POINT ( 'NONE',  ( 0.0000000000000000000, 0.0000000000000000000, 0.5000000000000000000 ) ) ;
#4 = DIRECTION ( 'NONE',  ( 1.000000000000000000, 0.0000000000000000000, -0.0000000000000000000 ) ) ;
#5 = DIRECTION ( 'NONE',  ( 1.000000000000000000, 0.0000000000000000000, 0.0000000000000000000 ) ) ;
#6 = APPLICATION_CONTEXT ( 'configuration controlled 3d designs of mechanical parts and assemblies' ) ;
#7 = ORIENTED_EDGE ( 'NONE', *, *, #35, .F. ) ;
#8 = DIRECTION ( 'NONE',  ( 0.0000000000000000000, 0.0000000000000000000, 1.000000000000000000 ) ) ;
#9 = DIRECTION ( 'NONE',  ( 1.000000000000000000, 0.0000000000000000000, 0.0000000000000000000 ) ) ;
#10 = APPROVAL_STATUS ( 'not_yet_approved' ) ;
#11 = DATE_AND_TIME ( #55, #76 ) ;
#12 = ORIENTED_EDGE ( 'NONE', *, *, #35, .T. ) ;
#13 = AXIS2_PLACEMENT_3D ( 'NONE', #3, #129, #5 ) ;
#14 = PRODUCT_DEFINITION ( 'UNKNOWN', '', #151, #81 ) ;
#15 = COORDINATED_UNIVERSAL_TIME_OFFSET ( 5, 0, .BEHIND. ) ;
#16 = CYLINDRICAL_SURFACE ( 'NONE', #69, 3.175000000000001155 ) ;
#17 = SECURITY_CLASSIFICATION ( '', '', #157 ) ;
#18 = COORDINATED_UNIVERSAL_TIME_OFFSET ( 5, 0, .BEHIND. ) ;
#19 = CIRCLE ( 'NONE', #105, 3.175000000000001155 ) ;
#20 = CARTESIAN_POINT ( 'NONE',  ( 0.0000000000000000000, 0.0000000000000000000, 0.5000000000000000000 ) ) ;
#21 = CARTESIAN_POINT ( 'NONE',  ( 0.0000000000000000000, 0.0000000000000000000, 0.0000000000000000000 ) ) ;
#22 = APPROVAL_ROLE ( '' ) ;
#23 = APPLICATION_CONTEXT ( 'configuration controlled 3d designs of mechanical parts and assemblies' ) ;
#24 = CALENDAR_DATE ( 2020, 21, 10 ) ;
#25 = SHAPE_DEFINITION_REPRESENTATION ( #117, #83 ) ;
#26 = DIRECTION ( 'NONE',  ( -0.0000000000000000000, -0.0000000000000000000, -1.000000000000000000 ) ) ;
#27 = PRODUCT ( 'Web Model 45567_16001', 'Web Model 45567_16001', '', ( #92 ) ) ;
#28 = ORIENTED_EDGE ( 'NONE', *, *, #72, .T. ) ;
#29 = APPROVAL_DATE_TIME ( #11, #132 ) ;
#30 = APPROVAL_DATE_TIME ( #1, #100 ) ;
#31 = CARTESIAN_POINT ( 'NONE',  ( -3.175000000000001155, 0.0000000000000000000, 0.5000000000000000000 ) ) ;
#32 = CARTESIAN_POINT ( 'NONE',  ( 3.175000000000001155, 3.888253587292847561E-16, 0.0000000000000000000 ) ) ;
#33 = PLANE ( 'NONE',  #57 ) ;
#34 = CC_DESIGN_DATE_AND_TIME_ASSIGNMENT ( #139, #77, ( #14 ) ) ;
#35 = EDGE_CURVE ( 'NONE', #137, #159, #53, .T. ) ;
#36 = APPROVAL_ROLE ( '' ) ;
#37 = DATE_AND_TIME ( #41, #110 ) ;
#38 = ADVANCED_FACE ( 'NONE', ( #155 ), #58, .T. ) ;
#39 = PERSON_AND_ORGANIZATION_ROLE ( 'design_owner' ) ;
#40 = DIRECTION ( 'NONE',  ( 1.000000000000000000, 0.0000000000000000000, 0.0000000000000000000 ) ) ;
#41 = CALENDAR_DATE ( 2020, 21, 10 ) ;
#42 = CIRCLE ( 'NONE', #62, 3.175000000000001155 ) ;
#43 = LOCAL_TIME ( 14, 30, 13.00000000000000000, #124 ) ;
#44 = ORIENTED_EDGE ( 'NONE', *, *, #72, .F. ) ;
#45 = CC_DESIGN_PERSON_AND_ORGANIZATION_ASSIGNMENT ( #70, #64, ( #151 ) ) ;
#46 = VECTOR ( 'NONE', #115, 1000.000000000000000 ) ;
#47 = AXIS2_PLACEMENT_3D ( 'NONE', #20, #153, #89 ) ;
#48 = EDGE_LOOP ( 'NONE', ( #67, #88 ) ) ;
#49 = CARTESIAN_POINT ( 'NONE',  ( 0.0000000000000000000, 0.0000000000000000000, 0.5000000000000000000 ) ) ;
#50 = ADVANCED_FACE ( 'NONE', ( #152 ), #99, .T. ) ;
#51 =( NAMED_UNIT ( * ) PLANE_ANGLE_UNIT ( ) SI_UNIT ( $, .RADIAN. ) );
#52 = ORIENTED_EDGE ( 'NONE', *, *, #165, .F. ) ;
#53 = CIRCLE ( 'NONE', #148, 3.175000000000001155 ) ;
#54 = AXIS2_PLACEMENT_3D ( 'NONE', #49, #87, #4 ) ;
#55 = CALENDAR_DATE ( 2020, 21, 10 ) ;
#56 = EDGE_LOOP ( 'NONE', ( #52, #7, #82, #61 ) ) ;
#57 = AXIS2_PLACEMENT_3D ( 'NONE', #104, #130, #85 ) ;
#58 = PLANE ( 'NONE',  #54 ) ;
#59 = CARTESIAN_POINT ( 'NONE',  ( -3.175000000000001155, 0.0000000000000000000, 0.0000000000000000000 ) ) ;
#60 = PERSON_AND_ORGANIZATION ( #68, #131 ) ;
#61 = ORIENTED_EDGE ( 'NONE', *, *, #140, .T. ) ;
#62 = AXIS2_PLACEMENT_3D ( 'NONE', #167, #8, #40 ) ;
#63 = APPROVAL_PERSON_ORGANIZATION ( #101, #132, #122 ) ;
#64 = PERSON_AND_ORGANIZATION_ROLE ( 'creator' ) ;
#65 = APPROVAL ( #10, 'UNSPECIFIED' ) ;
#66 = PERSON_AND_ORGANIZATION ( #68, #131 ) ;
#67 = ORIENTED_EDGE ( 'NONE', *, *, #140, .F. ) ;
#68 = PERSON ( 'UNSPECIFIED', 'UNSPECIFIED', 'UNSPECIFIED', ('UNSPECIFIED'), ('UNSPECIFIED'), ('UNSPECIFIED') ) ;
#69 = AXIS2_PLACEMENT_3D ( 'NONE', #118, #102, #144 ) ;
#70 = PERSON_AND_ORGANIZATION ( #68, #131 ) ;
#71 = ORIENTED_EDGE ( 'NONE', *, *, #2, .T. ) ;
#72 = EDGE_CURVE ( 'NONE', #159, #137, #98, .T. ) ;
#73 = DIRECTION ( 'NONE',  ( 1.000000000000000000, 0.0000000000000000000, 0.0000000000000000000 ) ) ;
#74 = COORDINATED_UNIVERSAL_TIME_OFFSET ( 5, 0, .BEHIND. ) ;
#75 = CC_DESIGN_SECURITY_CLASSIFICATION ( #17, ( #151 ) ) ;
#76 = LOCAL_TIME ( 14, 30, 13.00000000000000000, #121 ) ;
#77 = DATE_TIME_ROLE ( 'creation_date' ) ;
#78 = ORIENTED_EDGE ( 'NONE', *, *, #165, .T. ) ;
#79 = CC_DESIGN_PERSON_AND_ORGANIZATION_ASSIGNMENT ( #136, #119, ( #14 ) ) ;
#80 = FACE_OUTER_BOUND ( 'NONE', #48, .T. ) ;
#81 = DESIGN_CONTEXT ( 'detailed design', #6, 'design' ) ;
#82 = ORIENTED_EDGE ( 'NONE', *, *, #135, .T. ) ;
#83 = ADVANCED_BREP_SHAPE_REPRESENTATION ( 'Web Model 45567_16001', ( #162, #145 ), #111 ) ;
#84 = LINE ( 'NONE', #171, #128 ) ;
#85 = DIRECTION ( 'NONE',  ( 1.000000000000000000, 0.0000000000000000000, -0.0000000000000000000 ) ) ;
#86 = APPROVAL_PERSON_ORGANIZATION ( #66, #65, #36 ) ;
#87 = DIRECTION ( 'NONE',  ( 0.0000000000000000000, 0.0000000000000000000, 1.000000000000000000 ) ) ;
#88 = ORIENTED_EDGE ( 'NONE', *, *, #2, .F. ) ;
#89 = DIRECTION ( 'NONE',  ( -1.000000000000000000, 0.0000000000000000000, 0.0000000000000000000 ) ) ;
#90 = CLOSED_SHELL ( 'NONE', ( #97, #50, #38, #93 ) ) ;
#91 = CC_DESIGN_APPROVAL ( #132, ( #17 ) ) ;
#92 = MECHANICAL_CONTEXT ( 'NONE', #23, 'mechanical' ) ;
#93 = ADVANCED_FACE ( 'NONE', ( #80 ), #33, .F. ) ;
#94 = DIRECTION ( 'NONE',  ( 0.0000000000000000000, 0.0000000000000000000, 1.000000000000000000 ) ) ;
#95 = APPROVAL_STATUS ( 'not_yet_approved' ) ;
#96 = APPROVAL_STATUS ( 'not_yet_approved' ) ;
#97 = ADVANCED_FACE ( 'NONE', ( #133 ), #16, .T. ) ;
#98 = CIRCLE ( 'NONE', #13, 3.175000000000001155 ) ;
#99 = CYLINDRICAL_SURFACE ( 'NONE', #47, 3.175000000000001155 ) ;
#100 = APPROVAL ( #95, 'UNSPECIFIED' ) ;
#101 = PERSON_AND_ORGANIZATION ( #68, #131 ) ;
#102 = DIRECTION ( 'NONE',  ( -0.0000000000000000000, -0.0000000000000000000, -1.000000000000000000 ) ) ;
#103 = CARTESIAN_POINT ( 'NONE',  ( 3.175000000000001155, 3.888253587292847561E-16, 0.5000000000000000000 ) ) ;
#104 = CARTESIAN_POINT ( 'NONE',  ( 0.0000000000000000000, 0.0000000000000000000, 0.0000000000000000000 ) ) ;
#105 = AXIS2_PLACEMENT_3D ( 'NONE', #21, #166, #73 ) ;
#106 = APPLICATION_PROTOCOL_DEFINITION ( 'international standard', 'config_control_design', 1994, #6 ) ;
#107 = UNCERTAINTY_MEASURE_WITH_UNIT (LENGTH_MEASURE( 1.000000000000000082E-05 ), #169, 'distance_accuracy_value', 'NONE');
#108 = CALENDAR_DATE ( 2020, 21, 10 ) ;
#109 = PERSON_AND_ORGANIZATION_ROLE ( 'classification_officer' ) ;
#110 = LOCAL_TIME ( 14, 30, 13.00000000000000000, #74 ) ;
#111 =( GEOMETRIC_REPRESENTATION_CONTEXT ( 3 ) GLOBAL_UNCERTAINTY_ASSIGNED_CONTEXT ( ( #107 ) ) GLOBAL_UNIT_ASSIGNED_CONTEXT ( ( #169, #51, #146 ) ) REPRESENTATION_CONTEXT ( 'NONE', 'WORKASPACE' ) );
#112 = LINE ( 'NONE', #31, #46 ) ;
#113 = APPROVAL_DATE_TIME ( #160, #65 ) ;
#114 = CARTESIAN_POINT ( 'NONE',  ( -3.175000000000001155, 0.0000000000000000000, 0.5000000000000000000 ) ) ;
#115 = DIRECTION ( 'NONE',  ( -0.0000000000000000000, -0.0000000000000000000, -1.000000000000000000 ) ) ;
#116 = EDGE_LOOP ( 'NONE', ( #12, #28 ) ) ;
#117 = PRODUCT_DEFINITION_SHAPE ( 'NONE', 'NONE',  #14 ) ;
#118 = CARTESIAN_POINT ( 'NONE',  ( 0.0000000000000000000, 0.0000000000000000000, 0.5000000000000000000 ) ) ;
#119 = PERSON_AND_ORGANIZATION_ROLE ( 'creator' ) ;
#120 = APPLICATION_PROTOCOL_DEFINITION ( 'international standard', 'config_control_design', 1994, #23 ) ;
#121 = COORDINATED_UNIVERSAL_TIME_OFFSET ( 5, 0, .BEHIND. ) ;
#122 = APPROVAL_ROLE ( '' ) ;
#123 = CC_DESIGN_APPROVAL ( #100, ( #14 ) ) ;
#124 = COORDINATED_UNIVERSAL_TIME_OFFSET ( 5, 0, .BEHIND. ) ;
#125 = ORIENTED_EDGE ( 'NONE', *, *, #135, .F. ) ;
#126 = CC_DESIGN_PERSON_AND_ORGANIZATION_ASSIGNMENT ( #127, #109, ( #17 ) ) ;
#127 = PERSON_AND_ORGANIZATION ( #68, #131 ) ;
#128 = VECTOR ( 'NONE', #26, 1000.000000000000000 ) ;
#129 = DIRECTION ( 'NONE',  ( 0.0000000000000000000, 0.0000000000000000000, 1.000000000000000000 ) ) ;
#130 = DIRECTION ( 'NONE',  ( 0.0000000000000000000, 0.0000000000000000000, 1.000000000000000000 ) ) ;
#131 = ORGANIZATION ( 'UNSPECIFIED', 'UNSPECIFIED', '' ) ;
#132 = APPROVAL ( #96, 'UNSPECIFIED' ) ;
#133 = FACE_OUTER_BOUND ( 'NONE', #158, .T. ) ;
#134 = DATE_TIME_ROLE ( 'classification_date' ) ;
#135 = EDGE_CURVE ( 'NONE', #137, #147, #112, .T. ) ;
#136 = PERSON_AND_ORGANIZATION ( #68, #131 ) ;
#137 = VERTEX_POINT ( 'NONE', #114 ) ;
#138 = LOCAL_TIME ( 14, 30, 13.00000000000000000, #15 ) ;
#139 = DATE_AND_TIME ( #174, #170 ) ;
#140 = EDGE_CURVE ( 'NONE', #147, #164, #42, .T. ) ;
#141 = DIRECTION ( 'NONE',  ( 1.000000000000000000, 0.0000000000000000000, 0.0000000000000000000 ) ) ;
#142 = CARTESIAN_POINT ( 'NONE',  ( 0.0000000000000000000, 0.0000000000000000000, 0.5000000000000000000 ) ) ;
#143 = DIRECTION ( 'NONE',  ( 0.0000000000000000000, 0.0000000000000000000, 1.000000000000000000 ) ) ;
#144 = DIRECTION ( 'NONE',  ( -1.000000000000000000, 0.0000000000000000000, 0.0000000000000000000 ) ) ;
#145 = AXIS2_PLACEMENT_3D ( 'NONE', #168, #94, #9 ) ;
#146 =( NAMED_UNIT ( * ) SI_UNIT ( $, .STERADIAN. ) SOLID_ANGLE_UNIT ( ) );
#147 = VERTEX_POINT ( 'NONE', #59 ) ;
#148 = AXIS2_PLACEMENT_3D ( 'NONE', #142, #143, #141 ) ;
#149 = APPROVAL_PERSON_ORGANIZATION ( #173, #100, #22 ) ;
#150 = CC_DESIGN_APPROVAL ( #65, ( #151 ) ) ;
#151 = PRODUCT_DEFINITION_FORMATION_WITH_SPECIFIED_SOURCE ( 'ANY', '', #27, .NOT_KNOWN. ) ;
#152 = FACE_OUTER_BOUND ( 'NONE', #56, .T. ) ;
#153 = DIRECTION ( 'NONE',  ( -0.0000000000000000000, -0.0000000000000000000, -1.000000000000000000 ) ) ;
#154 = PERSON_AND_ORGANIZATION ( #68, #131 ) ;
#155 = FACE_OUTER_BOUND ( 'NONE', #116, .T. ) ;
#156 = PRODUCT_RELATED_PRODUCT_CATEGORY ( 'detail', '', ( #27 ) ) ;
#157 = SECURITY_CLASSIFICATION_LEVEL ( 'unclassified' ) ;
#158 = EDGE_LOOP ( 'NONE', ( #44, #78, #71, #125 ) ) ;
#159 = VERTEX_POINT ( 'NONE', #103 ) ;
#160 = DATE_AND_TIME ( #24, #138 ) ;
#161 = CC_DESIGN_DATE_AND_TIME_ASSIGNMENT ( #37, #134, ( #17 ) ) ;
#162 = MANIFOLD_SOLID_BREP ( 'Boss-Extrude1', #90 ) ;
#163 = CC_DESIGN_PERSON_AND_ORGANIZATION_ASSIGNMENT ( #60, #39, ( #27 ) ) ;
#164 = VERTEX_POINT ( 'NONE', #32 ) ;
#165 = EDGE_CURVE ( 'NONE', #159, #164, #84, .T. ) ;
#166 = DIRECTION ( 'NONE',  ( 0.0000000000000000000, 0.0000000000000000000, 1.000000000000000000 ) ) ;
#167 = CARTESIAN_POINT ( 'NONE',  ( 0.0000000000000000000, 0.0000000000000000000, 0.0000000000000000000 ) ) ;
#168 = CARTESIAN_POINT ( 'NONE',  ( 0.0000000000000000000, 0.0000000000000000000, 0.0000000000000000000 ) ) ;
#169 =( LENGTH_UNIT ( ) NAMED_UNIT ( * ) SI_UNIT ( .MILLI., .METRE. ) );
#170 = LOCAL_TIME ( 14, 30, 13.00000000000000000, #18 ) ;
#171 = CARTESIAN_POINT ( 'NONE',  ( 3.175000000000001155, 3.888253587292847561E-16, 0.5000000000000000000 ) ) ;
#172 = PERSON_AND_ORGANIZATION_ROLE ( 'design_supplier' ) ;
#173 = PERSON_AND_ORGANIZATION ( #68, #131 ) ;
#174 = CALENDAR_DATE ( 2020, 21, 10 ) ;
#175 = CC_DESIGN_PERSON_AND_ORGANIZATION_ASSIGNMENT ( #154, #172, ( #151 ) ) ;
ENDSEC;
END-ISO-10303-21;
