ISO-10303-21;
HEADER;
FILE_DESCRIPTION (( 'STEP AP203' ),
    '1' );
FILE_NAME ('Web Model 38911_39009.step',
    '2018-10-18T19:48:29',
    ( '' ),
    ( '' ),
    'SwSTEP 2.0',
    'SolidWorks 2016',
    '' );
FILE_SCHEMA (( 'CONFIG_CONTROL_DESIGN' ));
ENDSEC;

DATA;
#1 = EDGE_CURVE ( 'NONE', #152, #48, #2, .T. ) ;
#2 = CIRCLE ( 'NONE', #89, 9.550000000000000700 ) ;
#3 = FACE_OUTER_BOUND ( 'NONE', #39, .T. ) ;
#4 = PRODUCT_RELATED_PRODUCT_CATEGORY ( 'detail', '', ( #17 ) ) ;
#5 = EDGE_LOOP ( 'NONE', ( #37, #7 ) ) ;
#6 = FACE_OUTER_BOUND ( 'NONE', #164, .T. ) ;
#7 = ORIENTED_EDGE ( 'NONE', *, *, #157, .F. ) ;
#8 = CARTESIAN_POINT ( 'NONE',  ( 0.0000000000000000000, 0.0000000000000000000, -3.174999999999999800 ) ) ;
#9 = DIRECTION ( 'NONE',  ( 0.0000000000000000000, 0.0000000000000000000, 1.000000000000000000 ) ) ;
#10 = DIRECTION ( 'NONE',  ( -0.0000000000000000000, -0.0000000000000000000, -1.000000000000000000 ) ) ;
#11 = DIRECTION ( 'NONE',  ( 1.000000000000000000, 0.0000000000000000000, 0.0000000000000000000 ) ) ;
#12 = APPLICATION_PROTOCOL_DEFINITION ( 'international standard', 'config_control_design', 1994, #88 ) ;
#13 = CALENDAR_DATE ( 2018, 18, 10 ) ;
#14 = PERSON_AND_ORGANIZATION_ROLE ( 'design_owner' ) ;
#15 =( LENGTH_UNIT ( ) NAMED_UNIT ( * ) SI_UNIT ( .MILLI., .METRE. ) );
#16 = DIRECTION ( 'NONE',  ( -0.0000000000000000000, -0.0000000000000000000, -1.000000000000000000 ) ) ;
#17 = PRODUCT ( 'Web Model 38911_39009', 'Web Model 38911_39009', '', ( #52 ) ) ;
#18 = ORIENTED_EDGE ( 'NONE', *, *, #109, .F. ) ;
#19 = CIRCLE ( 'NONE', #71, 9.550000000000000700 ) ;
#20 = DIRECTION ( 'NONE',  ( 1.000000000000000000, 0.0000000000000000000, -0.0000000000000000000 ) ) ;
#21 = CARTESIAN_POINT ( 'NONE',  ( 9.550000000000000700, 1.169537693185722600E-015, 3.174999999999999800 ) ) ;
#22 = PLANE ( 'NONE',  #133 ) ;
#23 = FACE_OUTER_BOUND ( 'NONE', #108, .T. ) ;
#24 = CC_DESIGN_APPROVAL ( #127, ( #119 ) ) ;
#25 = ORIENTED_EDGE ( 'NONE', *, *, #1, .T. ) ;
#26 = PERSON_AND_ORGANIZATION ( #40, #153 ) ;
#27 = AXIS2_PLACEMENT_3D ( 'NONE', #105, #16, #67 ) ;
#28 = LOCAL_TIME ( 15, 48, 29.00000000000000000, #137 ) ;
#29 = CARTESIAN_POINT ( 'NONE',  ( 0.0000000000000000000, 0.0000000000000000000, -3.174999999999999800 ) ) ;
#30 = EDGE_CURVE ( 'NONE', #43, #72, #77, .T. ) ;
#31 = COORDINATED_UNIVERSAL_TIME_OFFSET ( 5, 0, .BEHIND. ) ;
#32 = PERSON_AND_ORGANIZATION ( #40, #153 ) ;
#33 = CC_DESIGN_DATE_AND_TIME_ASSIGNMENT ( #110, #151, ( #115 ) ) ;
#34 = DIRECTION ( 'NONE',  ( -0.0000000000000000000, -0.0000000000000000000, -1.000000000000000000 ) ) ;
#35 = ADVANCED_FACE ( 'NONE', ( #23 ), #87, .T. ) ;
#36 = PLANE ( 'NONE',  #155 ) ;
#37 = ORIENTED_EDGE ( 'NONE', *, *, #30, .F. ) ;
#38 = PERSON_AND_ORGANIZATION_ROLE ( 'creator' ) ;
#39 = EDGE_LOOP ( 'NONE', ( #94, #18, #104, #51 ) ) ;
#40 = PERSON ( 'UNSPECIFIED', 'UNSPECIFIED', 'UNSPECIFIED', ('UNSPECIFIED'), ('UNSPECIFIED'), ('UNSPECIFIED') ) ;
#41 = CARTESIAN_POINT ( 'NONE',  ( 0.0000000000000000000, 0.0000000000000000000, 3.174999999999999800 ) ) ;
#42 = DIRECTION ( 'NONE',  ( 0.0000000000000000000, 0.0000000000000000000, 1.000000000000000000 ) ) ;
#43 = VERTEX_POINT ( 'NONE', #112 ) ;
#44 = ORIENTED_EDGE ( 'NONE', *, *, #53, .T. ) ;
#45 = APPROVAL_PERSON_ORGANIZATION ( #122, #136, #103 ) ;
#46 = DIRECTION ( 'NONE',  ( 0.0000000000000000000, 0.0000000000000000000, 1.000000000000000000 ) ) ;
#47 = CARTESIAN_POINT ( 'NONE',  ( 0.0000000000000000000, 0.0000000000000000000, 0.0000000000000000000 ) ) ;
#48 = VERTEX_POINT ( 'NONE', #85 ) ;
#49 = CARTESIAN_POINT ( 'NONE',  ( 0.0000000000000000000, 0.0000000000000000000, 3.174999999999999800 ) ) ;
#50 = APPROVAL_STATUS ( 'not_yet_approved' ) ;
#51 = ORIENTED_EDGE ( 'NONE', *, *, #30, .T. ) ;
#52 = MECHANICAL_CONTEXT ( 'NONE', #147, 'mechanical' ) ;
#53 = EDGE_CURVE ( 'NONE', #152, #72, #70, .T. ) ;
#54 = ADVANCED_FACE ( 'NONE', ( #3 ), #84, .T. ) ;
#55 = PERSON_AND_ORGANIZATION ( #40, #153 ) ;
#56 = CC_DESIGN_APPROVAL ( #82, ( #125 ) ) ;
#57 = UNCERTAINTY_MEASURE_WITH_UNIT (LENGTH_MEASURE( 1.000000000000000100E-005 ), #15, 'distance_accuracy_value', 'NONE');
#58 = PERSON_AND_ORGANIZATION ( #40, #153 ) ;
#59 = ORIENTED_EDGE ( 'NONE', *, *, #157, .T. ) ;
#60 = PERSON_AND_ORGANIZATION ( #40, #153 ) ;
#61 = AXIS2_PLACEMENT_3D ( 'NONE', #29, #76, #11 ) ;
#62 = CARTESIAN_POINT ( 'NONE',  ( 0.0000000000000000000, 0.0000000000000000000, -3.174999999999999800 ) ) ;
#63 = CIRCLE ( 'NONE', #161, 9.550000000000000700 ) ;
#64 = APPROVAL_ROLE ( '' ) ;
#65 = APPROVAL_STATUS ( 'not_yet_approved' ) ;
#66 = CALENDAR_DATE ( 2018, 18, 10 ) ;
#67 = DIRECTION ( 'NONE',  ( -1.000000000000000000, 0.0000000000000000000, 0.0000000000000000000 ) ) ;
#68 =( NAMED_UNIT ( * ) SI_UNIT ( $, .STERADIAN. ) SOLID_ANGLE_UNIT ( ) );
#69 = VECTOR ( 'NONE', #34, 1000.000000000000000 ) ;
#70 = LINE ( 'NONE', #21, #69 ) ;
#71 = AXIS2_PLACEMENT_3D ( 'NONE', #62, #174, #79 ) ;
#72 = VERTEX_POINT ( 'NONE', #159 ) ;
#73 = CC_DESIGN_SECURITY_CLASSIFICATION ( #115, ( #119 ) ) ;
#74 = ORIENTED_EDGE ( 'NONE', *, *, #109, .T. ) ;
#75 = CC_DESIGN_DATE_AND_TIME_ASSIGNMENT ( #131, #117, ( #125 ) ) ;
#76 = DIRECTION ( 'NONE',  ( 0.0000000000000000000, 0.0000000000000000000, 1.000000000000000000 ) ) ;
#77 = CIRCLE ( 'NONE', #61, 9.550000000000000700 ) ;
#78 = DIRECTION ( 'NONE',  ( 1.000000000000000000, 0.0000000000000000000, 0.0000000000000000000 ) ) ;
#79 = DIRECTION ( 'NONE',  ( 1.000000000000000000, 0.0000000000000000000, 0.0000000000000000000 ) ) ;
#80 = COORDINATED_UNIVERSAL_TIME_OFFSET ( 5, 0, .BEHIND. ) ;
#81 =( GEOMETRIC_REPRESENTATION_CONTEXT ( 3 ) GLOBAL_UNCERTAINTY_ASSIGNED_CONTEXT ( ( #57 ) ) GLOBAL_UNIT_ASSIGNED_CONTEXT ( ( #15, #149, #68 ) ) REPRESENTATION_CONTEXT ( 'NONE', 'WORKASPACE' ) );
#82 = APPROVAL ( #65, 'UNSPECIFIED' ) ;
#83 = CALENDAR_DATE ( 2018, 18, 10 ) ;
#84 = CYLINDRICAL_SURFACE ( 'NONE', #143, 9.550000000000000700 ) ;
#85 = CARTESIAN_POINT ( 'NONE',  ( -9.550000000000000700, 0.0000000000000000000, 3.174999999999999800 ) ) ;
#86 = DIRECTION ( 'NONE',  ( -0.0000000000000000000, -0.0000000000000000000, -1.000000000000000000 ) ) ;
#87 = CYLINDRICAL_SURFACE ( 'NONE', #27, 9.550000000000000700 ) ;
#88 = APPLICATION_CONTEXT ( 'configuration controlled 3d designs of mechanical parts and assemblies' ) ;
#89 = AXIS2_PLACEMENT_3D ( 'NONE', #41, #42, #138 ) ;
#90 = DIRECTION ( 'NONE',  ( 1.000000000000000000, 0.0000000000000000000, 0.0000000000000000000 ) ) ;
#91 = DESIGN_CONTEXT ( 'detailed design', #88, 'design' ) ;
#92 = ADVANCED_FACE ( 'NONE', ( #142 ), #22, .F. ) ;
#93 = COORDINATED_UNIVERSAL_TIME_OFFSET ( 5, 0, .BEHIND. ) ;
#94 = ORIENTED_EDGE ( 'NONE', *, *, #53, .F. ) ;
#95 = DATE_AND_TIME ( #13, #167 ) ;
#96 = AXIS2_PLACEMENT_3D ( 'NONE', #47, #170, #90 ) ;
#97 = CC_DESIGN_PERSON_AND_ORGANIZATION_ASSIGNMENT ( #55, #14, ( #17 ) ) ;
#98 = APPROVAL_PERSON_ORGANIZATION ( #60, #127, #64 ) ;
#99 = APPROVAL_DATE_TIME ( #148, #82 ) ;
#100 = ADVANCED_FACE ( 'NONE', ( #6 ), #36, .T. ) ;
#101 = APPLICATION_PROTOCOL_DEFINITION ( 'international standard', 'config_control_design', 1994, #147 ) ;
#102 = APPROVAL_STATUS ( 'not_yet_approved' ) ;
#103 = APPROVAL_ROLE ( '' ) ;
#104 = ORIENTED_EDGE ( 'NONE', *, *, #123, .T. ) ;
#105 = CARTESIAN_POINT ( 'NONE',  ( 0.0000000000000000000, 0.0000000000000000000, 3.174999999999999800 ) ) ;
#106 = CC_DESIGN_PERSON_AND_ORGANIZATION_ASSIGNMENT ( #166, #162, ( #125 ) ) ;
#107 = ADVANCED_BREP_SHAPE_REPRESENTATION ( 'Web Model 38911_39009', ( #144, #96 ), #81 ) ;
#108 = EDGE_LOOP ( 'NONE', ( #156, #44, #59, #124 ) ) ;
#109 = EDGE_CURVE ( 'NONE', #48, #152, #63, .T. ) ;
#110 = DATE_AND_TIME ( #83, #126 ) ;
#111 = DIRECTION ( 'NONE',  ( 1.000000000000000000, 0.0000000000000000000, -0.0000000000000000000 ) ) ;
#112 = CARTESIAN_POINT ( 'NONE',  ( -9.550000000000000700, 0.0000000000000000000, -3.174999999999999800 ) ) ;
#113 = PRODUCT_DEFINITION_SHAPE ( 'NONE', 'NONE',  #125 ) ;
#114 = CARTESIAN_POINT ( 'NONE',  ( -9.550000000000000700, 0.0000000000000000000, 3.174999999999999800 ) ) ;
#115 = SECURITY_CLASSIFICATION ( '', '', #120 ) ;
#116 = CLOSED_SHELL ( 'NONE', ( #35, #54, #100, #92 ) ) ;
#117 = DATE_TIME_ROLE ( 'creation_date' ) ;
#118 = CALENDAR_DATE ( 2018, 18, 10 ) ;
#119 = PRODUCT_DEFINITION_FORMATION_WITH_SPECIFIED_SOURCE ( 'ANY', '', #17, .NOT_KNOWN. ) ;
#120 = SECURITY_CLASSIFICATION_LEVEL ( 'unclassified' ) ;
#121 = APPROVAL_DATE_TIME ( #128, #136 ) ;
#122 = PERSON_AND_ORGANIZATION ( #40, #153 ) ;
#123 = EDGE_CURVE ( 'NONE', #48, #43, #145, .T. ) ;
#124 = ORIENTED_EDGE ( 'NONE', *, *, #123, .F. ) ;
#125 = PRODUCT_DEFINITION ( 'UNKNOWN', '', #119, #91 ) ;
#126 = LOCAL_TIME ( 15, 48, 29.00000000000000000, #165 ) ;
#127 = APPROVAL ( #102, 'UNSPECIFIED' ) ;
#128 = DATE_AND_TIME ( #163, #141 ) ;
#129 = CARTESIAN_POINT ( 'NONE',  ( 0.0000000000000000000, 0.0000000000000000000, 3.174999999999999800 ) ) ;
#130 = CARTESIAN_POINT ( 'NONE',  ( 9.550000000000000700, 1.169537693185722600E-015, 3.174999999999999800 ) ) ;
#131 = DATE_AND_TIME ( #66, #160 ) ;
#132 = APPROVAL_ROLE ( '' ) ;
#133 = AXIS2_PLACEMENT_3D ( 'NONE', #8, #171, #20 ) ;
#134 = PERSON_AND_ORGANIZATION_ROLE ( 'design_supplier' ) ;
#135 = APPROVAL_DATE_TIME ( #95, #127 ) ;
#136 = APPROVAL ( #50, 'UNSPECIFIED' ) ;
#137 = COORDINATED_UNIVERSAL_TIME_OFFSET ( 5, 0, .BEHIND. ) ;
#138 = DIRECTION ( 'NONE',  ( 1.000000000000000000, 0.0000000000000000000, 0.0000000000000000000 ) ) ;
#139 = APPROVAL_PERSON_ORGANIZATION ( #32, #82, #132 ) ;
#140 = CC_DESIGN_PERSON_AND_ORGANIZATION_ASSIGNMENT ( #154, #38, ( #119 ) ) ;
#141 = LOCAL_TIME ( 15, 48, 29.00000000000000000, #80 ) ;
#142 = FACE_OUTER_BOUND ( 'NONE', #5, .T. ) ;
#143 = AXIS2_PLACEMENT_3D ( 'NONE', #169, #10, #146 ) ;
#144 = MANIFOLD_SOLID_BREP ( 'Boss-Extrude1', #116 ) ;
#145 = LINE ( 'NONE', #114, #175 ) ;
#146 = DIRECTION ( 'NONE',  ( -1.000000000000000000, 0.0000000000000000000, 0.0000000000000000000 ) ) ;
#147 = APPLICATION_CONTEXT ( 'configuration controlled 3d designs of mechanical parts and assemblies' ) ;
#148 = DATE_AND_TIME ( #118, #28 ) ;
#149 =( NAMED_UNIT ( * ) PLANE_ANGLE_UNIT ( ) SI_UNIT ( $, .RADIAN. ) );
#150 = CC_DESIGN_PERSON_AND_ORGANIZATION_ASSIGNMENT ( #26, #134, ( #119 ) ) ;
#151 = DATE_TIME_ROLE ( 'classification_date' ) ;
#152 = VERTEX_POINT ( 'NONE', #130 ) ;
#153 = ORGANIZATION ( 'UNSPECIFIED', 'UNSPECIFIED', '' ) ;
#154 = PERSON_AND_ORGANIZATION ( #40, #153 ) ;
#155 = AXIS2_PLACEMENT_3D ( 'NONE', #129, #46, #111 ) ;
#156 = ORIENTED_EDGE ( 'NONE', *, *, #1, .F. ) ;
#157 = EDGE_CURVE ( 'NONE', #72, #43, #19, .T. ) ;
#158 = SHAPE_DEFINITION_REPRESENTATION ( #113, #107 ) ;
#159 = CARTESIAN_POINT ( 'NONE',  ( 9.550000000000000700, 1.169537693185722600E-015, -3.174999999999999800 ) ) ;
#160 = LOCAL_TIME ( 15, 48, 29.00000000000000000, #93 ) ;
#161 = AXIS2_PLACEMENT_3D ( 'NONE', #49, #9, #78 ) ;
#162 = PERSON_AND_ORGANIZATION_ROLE ( 'creator' ) ;
#163 = CALENDAR_DATE ( 2018, 18, 10 ) ;
#164 = EDGE_LOOP ( 'NONE', ( #74, #25 ) ) ;
#165 = COORDINATED_UNIVERSAL_TIME_OFFSET ( 5, 0, .BEHIND. ) ;
#166 = PERSON_AND_ORGANIZATION ( #40, #153 ) ;
#167 = LOCAL_TIME ( 15, 48, 29.00000000000000000, #31 ) ;
#168 = CC_DESIGN_APPROVAL ( #136, ( #115 ) ) ;
#169 = CARTESIAN_POINT ( 'NONE',  ( 0.0000000000000000000, 0.0000000000000000000, 3.174999999999999800 ) ) ;
#170 = DIRECTION ( 'NONE',  ( 0.0000000000000000000, 0.0000000000000000000, 1.000000000000000000 ) ) ;
#171 = DIRECTION ( 'NONE',  ( 0.0000000000000000000, 0.0000000000000000000, 1.000000000000000000 ) ) ;
#172 = CC_DESIGN_PERSON_AND_ORGANIZATION_ASSIGNMENT ( #58, #173, ( #115 ) ) ;
#173 = PERSON_AND_ORGANIZATION_ROLE ( 'classification_officer' ) ;
#174 = DIRECTION ( 'NONE',  ( 0.0000000000000000000, 0.0000000000000000000, 1.000000000000000000 ) ) ;
#175 = VECTOR ( 'NONE', #86, 1000.000000000000000 ) ;
ENDSEC;
END-ISO-10303-21;
