ISO-10303-21;
HEADER;
FILE_DESCRIPTION (( 'STEP AP203' ),
    '1' );
FILE_NAME ('Web Model 45573.STEP',
    '2017-01-31T15:17:55',
    ( '' ),
    ( '' ),
    'SwSTEP 2.0',
    'SolidWorks 2016',
    '' );
FILE_SCHEMA (( 'CONFIG_CONTROL_DESIGN' ));
ENDSEC;

DATA;
#1 = ADVANCED_FACE ( 'NONE', ( #89 ), #103, .T. ) ;
#2 = ORGANIZATION ( 'UNSPECIFIED', 'UNSPECIFIED', '' ) ;
#3 = PERSON_AND_ORGANIZATION ( #11, #2 ) ;
#4 = LINE ( 'NONE', #147, #100 ) ;
#5 = CC_DESIGN_DATE_AND_TIME_ASSIGNMENT ( #18, #121, ( #35 ) ) ;
#6 = APPLICATION_PROTOCOL_DEFINITION ( 'international standard', 'config_control_design', 1994, #170 ) ;
#7 = EDGE_CURVE ( 'NONE', #86, #159, #40, .T. ) ;
#8 = DIRECTION ( 'NONE',  ( 0.0000000000000000000, 0.0000000000000000000, 1.000000000000000000 ) ) ;
#9 = DIRECTION ( 'NONE',  ( 1.000000000000000000, 0.0000000000000000000, 0.0000000000000000000 ) ) ;
#10 = CC_DESIGN_DATE_AND_TIME_ASSIGNMENT ( #93, #96, ( #48 ) ) ;
#11 = PERSON ( 'UNSPECIFIED', 'UNSPECIFIED', 'UNSPECIFIED', ('UNSPECIFIED'), ('UNSPECIFIED'), ('UNSPECIFIED') ) ;
#12 = EDGE_LOOP ( 'NONE', ( #37, #126 ) ) ;
#13 = APPROVAL ( #107, 'UNSPECIFIED' ) ;
#14 = APPLICATION_PROTOCOL_DEFINITION ( 'international standard', 'config_control_design', 1994, #92 ) ;
#15 = APPROVAL_STATUS ( 'not_yet_approved' ) ;
#16 = CARTESIAN_POINT ( 'NONE',  ( 0.0000000000000000000, 0.0000000000000000000, -2.000000000000000000 ) ) ;
#17 = ORIENTED_EDGE ( 'NONE', *, *, #95, .T. ) ;
#18 = DATE_AND_TIME ( #90, #51 ) ;
#19 = AXIS2_PLACEMENT_3D ( 'NONE', #46, #167, #137 ) ;
#20 = DIRECTION ( 'NONE',  ( 0.0000000000000000000, 0.0000000000000000000, 1.000000000000000000 ) ) ;
#21 = DIRECTION ( 'NONE',  ( 0.0000000000000000000, 0.0000000000000000000, 1.000000000000000000 ) ) ;
#22 = CC_DESIGN_APPROVAL ( #13, ( #27 ) ) ;
#23 = COORDINATED_UNIVERSAL_TIME_OFFSET ( 5, 0, .BEHIND. ) ;
#24 = ORIENTED_EDGE ( 'NONE', *, *, #85, .F. ) ;
#25 = PERSON_AND_ORGANIZATION ( #11, #2 ) ;
#26 = APPROVAL ( #15, 'UNSPECIFIED' ) ;
#27 = PRODUCT_DEFINITION_FORMATION_WITH_SPECIFIED_SOURCE ( 'ANY', '', #64, .NOT_KNOWN. ) ;
#28 = CARTESIAN_POINT ( 'NONE',  ( 0.0000000000000000000, 0.0000000000000000000, -2.000000000000000000 ) ) ;
#29 = LINE ( 'NONE', #57, #130 ) ;
#30 = AXIS2_PLACEMENT_3D ( 'NONE', #54, #21, #34 ) ;
#31 = APPROVAL_ROLE ( '' ) ;
#32 = ORIENTED_EDGE ( 'NONE', *, *, #7, .T. ) ;
#33 = APPROVAL_ROLE ( '' ) ;
#34 = DIRECTION ( 'NONE',  ( 1.000000000000000000, 0.0000000000000000000, 0.0000000000000000000 ) ) ;
#35 = SECURITY_CLASSIFICATION ( '', '', #55 ) ;
#36 = APPROVAL_PERSON_ORGANIZATION ( #62, #13, #31 ) ;
#37 = ORIENTED_EDGE ( 'NONE', *, *, #111, .F. ) ;
#38 = CARTESIAN_POINT ( 'NONE',  ( 0.0000000000000000000, 0.0000000000000000000, -2.000000000000000000 ) ) ;
#39 = CC_DESIGN_SECURITY_CLASSIFICATION ( #35, ( #27 ) ) ;
#40 = CIRCLE ( 'NONE', #30, 2.499999999999998700 ) ;
#41 = CC_DESIGN_PERSON_AND_ORGANIZATION_ASSIGNMENT ( #65, #53, ( #64 ) ) ;
#42 = CC_DESIGN_PERSON_AND_ORGANIZATION_ASSIGNMENT ( #25, #80, ( #35 ) ) ;
#43 = DIRECTION ( 'NONE',  ( 1.000000000000000000, 0.0000000000000000000, 0.0000000000000000000 ) ) ;
#44 = PERSON_AND_ORGANIZATION_ROLE ( 'creator' ) ;
#45 = PERSON_AND_ORGANIZATION_ROLE ( 'design_supplier' ) ;
#46 = CARTESIAN_POINT ( 'NONE',  ( 0.0000000000000000000, 0.0000000000000000000, 0.0000000000000000000 ) ) ;
#47 = APPROVAL_ROLE ( '' ) ;
#48 = PRODUCT_DEFINITION ( 'UNKNOWN', '', #27, #91 ) ;
#49 = VERTEX_POINT ( 'NONE', #154 ) ;
#50 = CALENDAR_DATE ( 2017, 31, 1 ) ;
#51 = LOCAL_TIME ( 10, 17, 55.00000000000000000, #87 ) ;
#52 = APPROVAL_PERSON_ORGANIZATION ( #158, #60, #47 ) ;
#53 = PERSON_AND_ORGANIZATION_ROLE ( 'design_owner' ) ;
#54 = CARTESIAN_POINT ( 'NONE',  ( 0.0000000000000000000, 0.0000000000000000000, -2.000000000000000000 ) ) ;
#55 = SECURITY_CLASSIFICATION_LEVEL ( 'unclassified' ) ;
#56 = AXIS2_PLACEMENT_3D ( 'NONE', #28, #149, #97 ) ;
#57 = CARTESIAN_POINT ( 'NONE',  ( 2.499999999999998700, 0.0000000000000000000, -2.000000000000000000 ) ) ;
#58 = ORIENTED_EDGE ( 'NONE', *, *, #77, .T. ) ;
#59 = APPROVAL_STATUS ( 'not_yet_approved' ) ;
#60 = APPROVAL ( #59, 'UNSPECIFIED' ) ;
#61 = COORDINATED_UNIVERSAL_TIME_OFFSET ( 5, 0, .BEHIND. ) ;
#62 = PERSON_AND_ORGANIZATION ( #11, #2 ) ;
#63 = ORIENTED_EDGE ( 'NONE', *, *, #152, .F. ) ;
#64 = PRODUCT ( 'Web Model 45573', 'Web Model 45573', '', ( #105 ) ) ;
#65 = PERSON_AND_ORGANIZATION ( #11, #2 ) ;
#66 = CIRCLE ( 'NONE', #125, 2.499999999999998700 ) ;
#67 = CC_DESIGN_PERSON_AND_ORGANIZATION_ASSIGNMENT ( #99, #44, ( #48 ) ) ;
#68 =( LENGTH_UNIT ( ) NAMED_UNIT ( * ) SI_UNIT ( .MILLI., .METRE. ) );
#69 = COORDINATED_UNIVERSAL_TIME_OFFSET ( 5, 0, .BEHIND. ) ;
#70 =( NAMED_UNIT ( * ) PLANE_ANGLE_UNIT ( ) SI_UNIT ( $, .RADIAN. ) );
#71 = ORIENTED_EDGE ( 'NONE', *, *, #95, .F. ) ;
#72 = DIRECTION ( 'NONE',  ( 1.000000000000000000, 0.0000000000000000000, 0.0000000000000000000 ) ) ;
#73 = CARTESIAN_POINT ( 'NONE',  ( 2.499999999999998700, 0.0000000000000000000, -2.000000000000000000 ) ) ;
#74 =( NAMED_UNIT ( * ) SI_UNIT ( $, .STERADIAN. ) SOLID_ANGLE_UNIT ( ) );
#75 =( GEOMETRIC_REPRESENTATION_CONTEXT ( 3 ) GLOBAL_UNCERTAINTY_ASSIGNED_CONTEXT ( ( #114 ) ) GLOBAL_UNIT_ASSIGNED_CONTEXT ( ( #68, #70, #74 ) ) REPRESENTATION_CONTEXT ( 'NONE', 'WORKASPACE' ) );
#76 = FACE_OUTER_BOUND ( 'NONE', #98, .T. ) ;
#77 = EDGE_CURVE ( 'NONE', #78, #49, #163, .T. ) ;
#78 = VERTEX_POINT ( 'NONE', #83 ) ;
#79 = CARTESIAN_POINT ( 'NONE',  ( 0.0000000000000000000, 0.0000000000000000000, 0.0000000000000000000 ) ) ;
#80 = PERSON_AND_ORGANIZATION_ROLE ( 'classification_officer' ) ;
#81 = CARTESIAN_POINT ( 'NONE',  ( 0.0000000000000000000, 0.0000000000000000000, -2.000000000000000000 ) ) ;
#82 = CARTESIAN_POINT ( 'NONE',  ( 0.0000000000000000000, 0.0000000000000000000, 0.0000000000000000000 ) ) ;
#83 = CARTESIAN_POINT ( 'NONE',  ( -2.499999999999998700, 3.061616997868381700E-016, 0.0000000000000000000 ) ) ;
#84 = LOCAL_TIME ( 10, 17, 55.00000000000000000, #115 ) ;
#85 = EDGE_CURVE ( 'NONE', #86, #78, #4, .T. ) ;
#86 = VERTEX_POINT ( 'NONE', #135 ) ;
#87 = COORDINATED_UNIVERSAL_TIME_OFFSET ( 5, 0, .BEHIND. ) ;
#88 = APPROVAL_DATE_TIME ( #124, #13 ) ;
#89 = FACE_OUTER_BOUND ( 'NONE', #133, .T. ) ;
#90 = CALENDAR_DATE ( 2017, 31, 1 ) ;
#91 = DESIGN_CONTEXT ( 'detailed design', #170, 'design' ) ;
#92 = APPLICATION_CONTEXT ( 'configuration controlled 3d designs of mechanical parts and assemblies' ) ;
#93 = DATE_AND_TIME ( #128, #173 ) ;
#94 = DIRECTION ( 'NONE',  ( 1.000000000000000000, 0.0000000000000000000, -0.0000000000000000000 ) ) ;
#95 = EDGE_CURVE ( 'NONE', #49, #78, #66, .T. ) ;
#96 = DATE_TIME_ROLE ( 'creation_date' ) ;
#97 = DIRECTION ( 'NONE',  ( 1.000000000000000000, 0.0000000000000000000, 0.0000000000000000000 ) ) ;
#98 = EDGE_LOOP ( 'NONE', ( #17, #58 ) ) ;
#99 = PERSON_AND_ORGANIZATION ( #11, #2 ) ;
#100 = VECTOR ( 'NONE', #20, 1000.000000000000000 ) ;
#101 = DIRECTION ( 'NONE',  ( 0.0000000000000000000, 0.0000000000000000000, 1.000000000000000000 ) ) ;
#102 = ADVANCED_FACE ( 'NONE', ( #148 ), #156, .T. ) ;
#103 = CYLINDRICAL_SURFACE ( 'NONE', #141, 2.499999999999998700 ) ;
#104 = CALENDAR_DATE ( 2017, 31, 1 ) ;
#105 = MECHANICAL_CONTEXT ( 'NONE', #92, 'mechanical' ) ;
#106 = PLANE ( 'NONE',  #157 ) ;
#107 = APPROVAL_STATUS ( 'not_yet_approved' ) ;
#108 = DIRECTION ( 'NONE',  ( 1.000000000000000000, 0.0000000000000000000, -0.0000000000000000000 ) ) ;
#109 = ORIENTED_EDGE ( 'NONE', *, *, #85, .T. ) ;
#110 = CC_DESIGN_PERSON_AND_ORGANIZATION_ASSIGNMENT ( #3, #132, ( #27 ) ) ;
#111 = EDGE_CURVE ( 'NONE', #159, #86, #174, .T. ) ;
#112 = ORIENTED_EDGE ( 'NONE', *, *, #152, .T. ) ;
#113 = SHAPE_DEFINITION_REPRESENTATION ( #146, #144 ) ;
#114 = UNCERTAINTY_MEASURE_WITH_UNIT (LENGTH_MEASURE( 1.000000000000000100E-005 ), #68, 'distance_accuracy_value', 'NONE');
#115 = COORDINATED_UNIVERSAL_TIME_OFFSET ( 5, 0, .BEHIND. ) ;
#116 = CC_DESIGN_APPROVAL ( #60, ( #35 ) ) ;
#117 = CARTESIAN_POINT ( 'NONE',  ( 0.0000000000000000000, 0.0000000000000000000, 0.0000000000000000000 ) ) ;
#118 = DIRECTION ( 'NONE',  ( 1.000000000000000000, 0.0000000000000000000, 0.0000000000000000000 ) ) ;
#119 = DIRECTION ( 'NONE',  ( 0.0000000000000000000, 0.0000000000000000000, 1.000000000000000000 ) ) ;
#120 = PLANE ( 'NONE',  #129 ) ;
#121 = DATE_TIME_ROLE ( 'classification_date' ) ;
#122 = DATE_AND_TIME ( #50, #84 ) ;
#123 = APPROVAL_DATE_TIME ( #139, #26 ) ;
#124 = DATE_AND_TIME ( #140, #168 ) ;
#125 = AXIS2_PLACEMENT_3D ( 'NONE', #82, #151, #43 ) ;
#126 = ORIENTED_EDGE ( 'NONE', *, *, #7, .F. ) ;
#127 = PRODUCT_RELATED_PRODUCT_CATEGORY ( 'detail', '', ( #64 ) ) ;
#128 = CALENDAR_DATE ( 2017, 31, 1 ) ;
#129 = AXIS2_PLACEMENT_3D ( 'NONE', #81, #119, #94 ) ;
#130 = VECTOR ( 'NONE', #134, 1000.000000000000000 ) ;
#131 = PERSON_AND_ORGANIZATION ( #11, #2 ) ;
#132 = PERSON_AND_ORGANIZATION_ROLE ( 'creator' ) ;
#133 = EDGE_LOOP ( 'NONE', ( #24, #32, #112, #175 ) ) ;
#134 = DIRECTION ( 'NONE',  ( 0.0000000000000000000, 0.0000000000000000000, 1.000000000000000000 ) ) ;
#135 = CARTESIAN_POINT ( 'NONE',  ( -2.499999999999998700, 3.061616997868381700E-016, -2.000000000000000000 ) ) ;
#136 = CLOSED_SHELL ( 'NONE', ( #102, #1, #162, #161 ) ) ;
#137 = DIRECTION ( 'NONE',  ( 1.000000000000000000, 0.0000000000000000000, 0.0000000000000000000 ) ) ;
#138 = CC_DESIGN_PERSON_AND_ORGANIZATION_ASSIGNMENT ( #131, #45, ( #27 ) ) ;
#139 = DATE_AND_TIME ( #104, #166 ) ;
#140 = CALENDAR_DATE ( 2017, 31, 1 ) ;
#141 = AXIS2_PLACEMENT_3D ( 'NONE', #38, #101, #72 ) ;
#142 = APPROVAL_PERSON_ORGANIZATION ( #172, #26, #33 ) ;
#143 = FACE_OUTER_BOUND ( 'NONE', #12, .T. ) ;
#144 = ADVANCED_BREP_SHAPE_REPRESENTATION ( 'Web Model 45573', ( #155, #19 ), #75 ) ;
#145 = AXIS2_PLACEMENT_3D ( 'NONE', #79, #165, #118 ) ;
#146 = PRODUCT_DEFINITION_SHAPE ( 'NONE', 'NONE',  #48 ) ;
#147 = CARTESIAN_POINT ( 'NONE',  ( -2.499999999999998700, 3.061616997868381700E-016, -2.000000000000000000 ) ) ;
#148 = FACE_OUTER_BOUND ( 'NONE', #164, .T. ) ;
#149 = DIRECTION ( 'NONE',  ( 0.0000000000000000000, 0.0000000000000000000, 1.000000000000000000 ) ) ;
#150 = CC_DESIGN_APPROVAL ( #26, ( #48 ) ) ;
#151 = DIRECTION ( 'NONE',  ( 0.0000000000000000000, 0.0000000000000000000, 1.000000000000000000 ) ) ;
#152 = EDGE_CURVE ( 'NONE', #159, #49, #29, .T. ) ;
#153 = DIRECTION ( 'NONE',  ( 0.0000000000000000000, 0.0000000000000000000, 1.000000000000000000 ) ) ;
#154 = CARTESIAN_POINT ( 'NONE',  ( 2.499999999999998700, 0.0000000000000000000, 0.0000000000000000000 ) ) ;
#155 = MANIFOLD_SOLID_BREP ( 'Extrude1', #136 ) ;
#156 = CYLINDRICAL_SURFACE ( 'NONE', #171, 2.499999999999998700 ) ;
#157 = AXIS2_PLACEMENT_3D ( 'NONE', #117, #153, #108 ) ;
#158 = PERSON_AND_ORGANIZATION ( #11, #2 ) ;
#159 = VERTEX_POINT ( 'NONE', #73 ) ;
#160 = APPROVAL_DATE_TIME ( #122, #60 ) ;
#161 = ADVANCED_FACE ( 'NONE', ( #76 ), #106, .T. ) ;
#162 = ADVANCED_FACE ( 'NONE', ( #143 ), #120, .F. ) ;
#163 = CIRCLE ( 'NONE', #145, 2.499999999999998700 ) ;
#164 = EDGE_LOOP ( 'NONE', ( #169, #109, #71, #63 ) ) ;
#165 = DIRECTION ( 'NONE',  ( 0.0000000000000000000, 0.0000000000000000000, 1.000000000000000000 ) ) ;
#166 = LOCAL_TIME ( 10, 17, 55.00000000000000000, #61 ) ;
#167 = DIRECTION ( 'NONE',  ( 0.0000000000000000000, 0.0000000000000000000, 1.000000000000000000 ) ) ;
#168 = LOCAL_TIME ( 10, 17, 55.00000000000000000, #23 ) ;
#169 = ORIENTED_EDGE ( 'NONE', *, *, #111, .T. ) ;
#170 = APPLICATION_CONTEXT ( 'configuration controlled 3d designs of mechanical parts and assemblies' ) ;
#171 = AXIS2_PLACEMENT_3D ( 'NONE', #16, #8, #9 ) ;
#172 = PERSON_AND_ORGANIZATION ( #11, #2 ) ;
#173 = LOCAL_TIME ( 10, 17, 55.00000000000000000, #69 ) ;
#174 = CIRCLE ( 'NONE', #56, 2.499999999999998700 ) ;
#175 = ORIENTED_EDGE ( 'NONE', *, *, #77, .F. ) ;
ENDSEC;
END-ISO-10303-21;
