ISO-10303-21;
HEADER;
FILE_DESCRIPTION (( 'STEP AP203' ),
    '1' );
FILE_NAME ('24989-E0W.STEP',
    '2015-04-28T20:37:46',
    ( 'Admin' ),
    ( '' ),
    'SwSTEP 2.0',
    'SolidWorks 2014',
    '' );
FILE_SCHEMA (( 'CONFIG_CONTROL_DESIGN' ));
ENDSEC;

DATA;
#1 = DIRECTION ( 'NONE',  ( -0.0000000000000000000, -0.0000000000000000000, 1.000000000000000000 ) ) ;
#2 = CALENDAR_DATE ( 2015, 28, 4 ) ;
#3 = PERSON_AND_ORGANIZATION ( #288, #200 ) ;
#4 = CARTESIAN_POINT ( 'NONE',  ( 0.0000000000000000000, 0.0000000000000000000, 1.464906610036777400 ) ) ;
#5 = DIRECTION ( 'NONE',  ( 1.000000000000000000, 0.0000000000000000000, 0.0000000000000000000 ) ) ;
#6 = COORDINATED_UNIVERSAL_TIME_OFFSET ( 5, 0, .BEHIND. ) ;
#7 = DIRECTION ( 'NONE',  ( -0.7071067811865463500, 0.0000000000000000000, -0.7071067811865487900 ) ) ;
#8 = MECHANICAL_CONTEXT ( 'NONE', #45, 'mechanical' ) ;
#9 = DIRECTION ( 'NONE',  ( 0.0000000000000000000, 0.0000000000000000000, 1.000000000000000000 ) ) ;
#10 = APPROVAL_ROLE ( '' ) ;
#11 = AXIS2_PLACEMENT_3D ( 'NONE', #91, #86, #84 ) ;
#12 = APPROVAL ( #283, 'UNSPECIFIED' ) ;
#13 = APPLICATION_PROTOCOL_DEFINITION ( 'international standard', 'config_control_design', 1994, #45 ) ;
#14 = AXIS2_PLACEMENT_3D ( 'NONE', #36, #34, #32 ) ;
#15 = ADVANCED_FACE ( 'NONE', ( #157 ), #282, .T. ) ;
#16 = CIRCLE ( 'NONE', #209, 12.55857864376269000 ) ;
#17 = EDGE_CURVE ( 'NONE', #130, #143, #16, .T. ) ;
#18 = APPROVAL_PERSON_ORGANIZATION ( #114, #153, #284 ) ;
#19 = CARTESIAN_POINT ( 'NONE',  ( -12.69999999999999900, 0.0000000000000000000, 0.3934852537994680300 ) ) ;
#20 = EDGE_CURVE ( 'NONE', #166, #190, #298, .T. ) ;
#21 = EDGE_CURVE ( 'NONE', #199, #128, #42, .T. ) ;
#22 = CARTESIAN_POINT ( 'NONE',  ( 0.0000000000000000000, 0.0000000000000000000, 1.464906610036777400 ) ) ;
#23 = LINE ( 'NONE', #19, #236 ) ;
#24 = DIRECTION ( 'NONE',  ( 1.000000000000000000, 0.0000000000000000000, 0.0000000000000000000 ) ) ;
#25 = DIRECTION ( 'NONE',  ( -0.0000000000000000000, -0.0000000000000000000, 1.000000000000000000 ) ) ;
#26 = DATE_TIME_ROLE ( 'classification_date' ) ;
#27 = CARTESIAN_POINT ( 'NONE',  ( 0.0000000000000000000, 0.0000000000000000000, 0.5349066100367782000 ) ) ;
#28 = DIRECTION ( 'NONE',  ( 1.000000000000000000, 0.0000000000000000000, 0.0000000000000000000 ) ) ;
#29 = AXIS2_PLACEMENT_3D ( 'NONE', #4, #1, #216 ) ;
#30 = DIRECTION ( 'NONE',  ( -0.0000000000000000000, -0.0000000000000000000, 1.000000000000000000 ) ) ;
#31 = CARTESIAN_POINT ( 'NONE',  ( 0.0000000000000000000, 0.0000000000000000000, 0.3934852537994680300 ) ) ;
#32 = DIRECTION ( 'NONE',  ( 1.000000000000000000, 0.0000000000000000000, 0.0000000000000000000 ) ) ;
#33 =( NAMED_UNIT ( * ) SI_UNIT ( $, .STERADIAN. ) SOLID_ANGLE_UNIT ( ) );
#34 = DIRECTION ( 'NONE',  ( -0.0000000000000000000, -0.0000000000000000000, 1.000000000000000000 ) ) ;
#35 = CALENDAR_DATE ( 2015, 28, 4 ) ;
#36 = CARTESIAN_POINT ( 'NONE',  ( 0.0000000000000000000, 0.0000000000000000000, 0.5349066100367782000 ) ) ;
#37 = CC_DESIGN_PERSON_AND_ORGANIZATION_ASSIGNMENT ( #290, #250, ( #246 ) ) ;
#38 = DIRECTION ( 'NONE',  ( 1.000000000000000000, 0.0000000000000000000, 0.0000000000000000000 ) ) ;
#39 =( NAMED_UNIT ( * ) PLANE_ANGLE_UNIT ( ) SI_UNIT ( $, .RADIAN. ) );
#40 = EDGE_CURVE ( 'NONE', #190, #166, #223, .T. ) ;
#41 = TOROIDAL_SURFACE ( 'NONE', #98, -0.4990487068138646000, 91.99999999999998600 ) ;
#42 = CIRCLE ( 'NONE', #52, 12.69999999999999900 ) ;
#43 = DIRECTION ( 'NONE',  ( -0.0000000000000000000, -0.0000000000000000000, 1.000000000000000000 ) ) ;
#44 = SHAPE_DEFINITION_REPRESENTATION ( #235, #254 ) ;
#45 = APPLICATION_CONTEXT ( 'configuration controlled 3d designs of mechanical parts and assemblies' ) ;
#46 = PERSON_AND_ORGANIZATION ( #288, #200 ) ;
#47 = CARTESIAN_POINT ( 'NONE',  ( 0.0000000000000000000, 0.0000000000000000000, -1.465093389963222100 ) ) ;
#48 =( LENGTH_UNIT ( ) NAMED_UNIT ( * ) SI_UNIT ( .MILLI., .METRE. ) );
#49 = DIRECTION ( 'NONE',  ( 1.000000000000000000, 0.0000000000000000000, 0.0000000000000000000 ) ) ;
#50 = COORDINATED_UNIVERSAL_TIME_OFFSET ( 5, 0, .BEHIND. ) ;
#51 = DIRECTION ( 'NONE',  ( -0.0000000000000000000, -0.0000000000000000000, 1.000000000000000000 ) ) ;
#52 = AXIS2_PLACEMENT_3D ( 'NONE', #31, #30, #28 ) ;
#53 = DATE_AND_TIME ( #64, #178 ) ;
#54 = CARTESIAN_POINT ( 'NONE',  ( 0.0000000000000000000, 0.0000000000000000000, -1.465093389963222100 ) ) ;
#55 = DIRECTION ( 'NONE',  ( 1.000000000000000000, 0.0000000000000000000, 0.0000000000000000000 ) ) ;
#56 = CC_DESIGN_APPROVAL ( #243, ( #192 ) ) ;
#57 = ORIENTED_EDGE ( 'NONE', *, *, #17, .T. ) ;
#58 = CARTESIAN_POINT ( 'NONE',  ( 0.0000000000000000000, 0.0000000000000000000, 0.0000000000000000000 ) ) ;
#59 = DIRECTION ( 'NONE',  ( -0.0000000000000000000, -0.0000000000000000000, 1.000000000000000000 ) ) ;
#60 = ORIENTED_EDGE ( 'NONE', *, *, #206, .T. ) ;
#61 = ORIENTED_EDGE ( 'NONE', *, *, #207, .T. ) ;
#62 = DIRECTION ( 'NONE',  ( -0.0000000000000000000, -0.0000000000000000000, 1.000000000000000000 ) ) ;
#63 = VERTEX_POINT ( 'NONE', #22 ) ;
#64 = CALENDAR_DATE ( 2015, 28, 4 ) ;
#65 = ORIENTED_EDGE ( 'NONE', *, *, #136, .F. ) ;
#66 = DIRECTION ( 'NONE',  ( -0.0000000000000000000, -0.0000000000000000000, 1.000000000000000000 ) ) ;
#67 = CARTESIAN_POINT ( 'NONE',  ( -12.69999999999999900, 1.555301434917138400E-015, 1.464906610036777400 ) ) ;
#68 = ORIENTED_EDGE ( 'NONE', *, *, #207, .F. ) ;
#69 = CARTESIAN_POINT ( 'NONE',  ( 0.0000000000000000000, 0.0000000000000000000, 0.3934852537994680300 ) ) ;
#70 = DATE_AND_TIME ( #296, #99 ) ;
#71 = ORIENTED_EDGE ( 'NONE', *, *, #259, .T. ) ;
#72 = PRODUCT_RELATED_PRODUCT_CATEGORY ( 'detail', '', ( #159 ) ) ;
#73 = COORDINATED_UNIVERSAL_TIME_OFFSET ( 5, 0, .BEHIND. ) ;
#74 = LINE ( 'NONE', #67, #253 ) ;
#75 = CC_DESIGN_DATE_AND_TIME_ASSIGNMENT ( #70, #26, ( #192 ) ) ;
#76 = ORIENTED_EDGE ( 'NONE', *, *, #100, .T. ) ;
#77 = EDGE_CURVE ( 'NONE', #166, #199, #23, .T. ) ;
#78 = CARTESIAN_POINT ( 'NONE',  ( 0.0000000000000000000, 0.0000000000000000000, 0.3934852537994680300 ) ) ;
#79 = PERSON_AND_ORGANIZATION ( #288, #200 ) ;
#80 = ORIENTED_EDGE ( 'NONE', *, *, #248, .F. ) ;
#81 = CIRCLE ( 'NONE', #261, 12.55857864376269000 ) ;
#82 = ORIENTED_EDGE ( 'NONE', *, *, #21, .T. ) ;
#83 = ADVANCED_FACE ( 'NONE', ( #218 ), #293, .T. ) ;
#84 = DIRECTION ( 'NONE',  ( 1.000000000000000000, 0.0000000000000000000, 0.0000000000000000000 ) ) ;
#85 = APPROVAL_PERSON_ORGANIZATION ( #106, #243, #198 ) ;
#86 = DIRECTION ( 'NONE',  ( -0.0000000000000000000, -0.0000000000000000000, 1.000000000000000000 ) ) ;
#87 = DIRECTION ( 'NONE',  ( -0.7071067811865474600, 8.659560562354931600E-017, 0.7071067811865475700 ) ) ;
#88 = ORIENTED_EDGE ( 'NONE', *, *, #103, .T. ) ;
#89 = ORIENTED_EDGE ( 'NONE', *, *, #77, .T. ) ;
#90 = CARTESIAN_POINT ( 'NONE',  ( 0.0000000000000000000, 0.0000000000000000000, 1.464906610036777400 ) ) ;
#91 = CARTESIAN_POINT ( 'NONE',  ( 0.0000000000000000000, 0.0000000000000000000, -1.323672033725912500 ) ) ;
#92 = ORIENTED_EDGE ( 'NONE', *, *, #136, .T. ) ;
#93 = EDGE_LOOP ( 'NONE', ( #195, #76, #122, #186 ) ) ;
#94 = EDGE_LOOP ( 'NONE', ( #137, #88, #171 ) ) ;
#95 = EDGE_LOOP ( 'NONE', ( #57, #71, #121, #65 ) ) ;
#96 = ORIENTED_EDGE ( 'NONE', *, *, #179, .F. ) ;
#97 = UNCERTAINTY_MEASURE_WITH_UNIT (LENGTH_MEASURE( 1.000000000000000100E-005 ), #48, 'distance_accuracy_value', 'NONE');
#98 = AXIS2_PLACEMENT_3D ( 'NONE', #213, #210, #201 ) ;
#99 = LOCAL_TIME ( 16, 37, 46.00000000000000000, #176 ) ;
#100 = EDGE_CURVE ( 'NONE', #190, #128, #292, .T. ) ;
#101 = CIRCLE ( 'NONE', #272, 91.99999999999998600 ) ;
#102 = EDGE_LOOP ( 'NONE', ( #156, #154 ) ) ;
#103 = EDGE_CURVE ( 'NONE', #166, #63, #101, .T. ) ;
#104 = DIRECTION ( 'NONE',  ( 1.000000000000000000, 0.0000000000000000000, 0.0000000000000000000 ) ) ;
#105 = DIRECTION ( 'NONE',  ( -1.000000000000000000, 0.0000000000000000000, 0.0000000000000000000 ) ) ;
#106 = PERSON_AND_ORGANIZATION ( #288, #200 ) ;
#107 = ADVANCED_FACE ( 'NONE', ( #281 ), #262, .F. ) ;
#108 = PERSON_AND_ORGANIZATION_ROLE ( 'creator' ) ;
#109 = ORIENTED_EDGE ( 'NONE', *, *, #278, .F. ) ;
#110 = AXIS2_PLACEMENT_3D ( 'NONE', #27, #25, #24 ) ;
#111 = DIRECTION ( 'NONE',  ( 1.000000000000000000, 0.0000000000000000000, 0.0000000000000000000 ) ) ;
#112 = EDGE_LOOP ( 'NONE', ( #162, #124, #60 ) ) ;
#113 = DATE_AND_TIME ( #35, #204 ) ;
#114 = PERSON_AND_ORGANIZATION ( #288, #200 ) ;
#115 = DIRECTION ( 'NONE',  ( -0.0000000000000000000, -0.0000000000000000000, 1.000000000000000000 ) ) ;
#116 = EDGE_LOOP ( 'NONE', ( #109, #61, #170, #146 ) ) ;
#117 = EDGE_LOOP ( 'NONE', ( #163, #191, #80, #96 ) ) ;
#118 = EDGE_LOOP ( 'NONE', ( #173, #144, #92, #68 ) ) ;
#119 = AXIS2_PLACEMENT_3D ( 'NONE', #54, #51, #49 ) ;
#120 = EDGE_LOOP ( 'NONE', ( #175, #141, #89, #82 ) ) ;
#121 = ORIENTED_EDGE ( 'NONE', *, *, #271, .F. ) ;
#122 = ORIENTED_EDGE ( 'NONE', *, *, #248, .T. ) ;
#123 = CARTESIAN_POINT ( 'NONE',  ( 0.0000000000000000000, 0.0000000000000000000, -1.465093389963222100 ) ) ;
#124 = ORIENTED_EDGE ( 'NONE', *, *, #20, .T. ) ;
#125 = DIRECTION ( 'NONE',  ( 1.000000000000000000, 0.0000000000000000000, 0.0000000000000000000 ) ) ;
#126 = CC_DESIGN_PERSON_AND_ORGANIZATION_ASSIGNMENT ( #79, #108, ( #244 ) ) ;
#127 = FACE_OUTER_BOUND ( 'NONE', #93, .T. ) ;
#128 = VERTEX_POINT ( 'NONE', #237 ) ;
#129 = CONICAL_SURFACE ( 'NONE', #301, 12.69999999999999900, 0.7853981633974466100 ) ;
#130 = VERTEX_POINT ( 'NONE', #234 ) ;
#131 = DIRECTION ( 'NONE',  ( -0.0000000000000000000, -0.0000000000000000000, 1.000000000000000000 ) ) ;
#132 = FACE_OUTER_BOUND ( 'NONE', #95, .T. ) ;
#133 = COORDINATED_UNIVERSAL_TIME_OFFSET ( 5, 0, .BEHIND. ) ;
#134 = APPROVAL_DATE_TIME ( #53, #243 ) ;
#135 = CARTESIAN_POINT ( 'NONE',  ( 0.0000000000000000000, 0.0000000000000000000, -1.323672033725912500 ) ) ;
#136 = EDGE_CURVE ( 'NONE', #130, #147, #232, .T. ) ;
#137 = ORIENTED_EDGE ( 'NONE', *, *, #40, .T. ) ;
#138 = DIRECTION ( 'NONE',  ( 0.0000000000000000000, 0.0000000000000000000, -1.000000000000000000 ) ) ;
#139 = APPROVAL_STATUS ( 'not_yet_approved' ) ;
#140 = FACE_OUTER_BOUND ( 'NONE', #112, .T. ) ;
#141 = ORIENTED_EDGE ( 'NONE', *, *, #20, .F. ) ;
#142 = APPROVAL_DATE_TIME ( #211, #12 ) ;
#143 = VERTEX_POINT ( 'NONE', #224 ) ;
#144 = ORIENTED_EDGE ( 'NONE', *, *, #247, .T. ) ;
#145 = DIRECTION ( 'NONE',  ( 0.0000000000000000000, 0.0000000000000000000, -1.000000000000000000 ) ) ;
#146 = ORIENTED_EDGE ( 'NONE', *, *, #21, .F. ) ;
#147 = VERTEX_POINT ( 'NONE', #226 ) ;
#148 = FACE_OUTER_BOUND ( 'NONE', #117, .T. ) ;
#149 = VERTEX_POINT ( 'NONE', #220 ) ;
#150 = CC_DESIGN_PERSON_AND_ORGANIZATION_ASSIGNMENT ( #3, #275, ( #244 ) ) ;
#151 = ADVANCED_FACE ( 'NONE', ( #127 ), #258, .T. ) ;
#152 = CIRCLE ( 'NONE', #227, 12.69999999999999900 ) ;
#153 = APPROVAL ( #167, 'UNSPECIFIED' ) ;
#154 = ORIENTED_EDGE ( 'NONE', *, *, #247, .F. ) ;
#155 = ADVANCED_FACE ( 'NONE', ( #260 ), #41, .T. ) ;
#156 = ORIENTED_EDGE ( 'NONE', *, *, #17, .F. ) ;
#157 = FACE_OUTER_BOUND ( 'NONE', #118, .T. ) ;
#158 = APPROVAL_PERSON_ORGANIZATION ( #212, #12, #10 ) ;
#159 = PRODUCT ( '24989-E0W', '24989-E0W', '', ( #8 ) ) ;
#160 = DIRECTION ( 'NONE',  ( 0.0000000000000000000, -1.000000000000000000, 0.0000000000000000000 ) ) ;
#161 = ADVANCED_FACE ( 'NONE', ( #132 ), #297, .T. ) ;
#162 = ORIENTED_EDGE ( 'NONE', *, *, #103, .F. ) ;
#163 = ORIENTED_EDGE ( 'NONE', *, *, #271, .T. ) ;
#164 = CARTESIAN_POINT ( 'NONE',  ( -0.4990487068138646000, 0.0000000000000000000, -90.53373984950754000 ) ) ;
#165 = AXIS2_PLACEMENT_3D ( 'NONE', #219, #217, #267 ) ;
#166 = VERTEX_POINT ( 'NONE', #287 ) ;
#167 = APPROVAL_STATUS ( 'not_yet_approved' ) ;
#168 = SECURITY_CLASSIFICATION_LEVEL ( 'unclassified' ) ;
#169 = AXIS2_PLACEMENT_3D ( 'NONE', #69, #252, #104 ) ;
#170 = ORIENTED_EDGE ( 'NONE', *, *, #179, .T. ) ;
#171 = ORIENTED_EDGE ( 'NONE', *, *, #206, .F. ) ;
#172 = CARTESIAN_POINT ( 'NONE',  ( -12.69999999999999900, 1.555301434917138400E-015, 0.3934852537994680300 ) ) ;
#173 = ORIENTED_EDGE ( 'NONE', *, *, #259, .F. ) ;
#174 = CARTESIAN_POINT ( 'NONE',  ( 12.55857864376269000, 0.0000000000000000000, 0.5349066100367685400 ) ) ;
#175 = ORIENTED_EDGE ( 'NONE', *, *, #100, .F. ) ;
#176 = COORDINATED_UNIVERSAL_TIME_OFFSET ( 5, 0, .BEHIND. ) ;
#177 = AXIS2_PLACEMENT_3D ( 'NONE', #242, #59, #55 ) ;
#178 = LOCAL_TIME ( 16, 37, 46.00000000000000000, #73 ) ;
#179 = EDGE_CURVE ( 'NONE', #147, #128, #188, .T. ) ;
#180 = AXIS2_PLACEMENT_3D ( 'NONE', #90, #185, #182 ) ;
#181 = ADVANCED_FACE ( 'NONE', ( #148 ), #222, .T. ) ;
#182 = DIRECTION ( 'NONE',  ( 1.000000000000000000, 0.0000000000000000000, 0.0000000000000000000 ) ) ;
#183 = TOROIDAL_SURFACE ( 'NONE', #177, -0.4990487068138646000, 91.99999999999998600 ) ;
#184 = APPLICATION_PROTOCOL_DEFINITION ( 'international standard', 'config_control_design', 1994, #277 ) ;
#185 = DIRECTION ( 'NONE',  ( -0.0000000000000000000, -0.0000000000000000000, 1.000000000000000000 ) ) ;
#186 = ORIENTED_EDGE ( 'NONE', *, *, #77, .F. ) ;
#187 = CARTESIAN_POINT ( 'NONE',  ( 12.69999999999999900, 0.0000000000000000000, 1.464906610036777400 ) ) ;
#188 = LINE ( 'NONE', #187, #240 ) ;
#189 =( GEOMETRIC_REPRESENTATION_CONTEXT ( 3 ) GLOBAL_UNCERTAINTY_ASSIGNED_CONTEXT ( ( #97 ) ) GLOBAL_UNIT_ASSIGNED_CONTEXT ( ( #48, #39, #33 ) ) REPRESENTATION_CONTEXT ( 'NONE', 'WORKASPACE' ) );
#190 = VERTEX_POINT ( 'NONE', #174 ) ;
#191 = ORIENTED_EDGE ( 'NONE', *, *, #278, .T. ) ;
#192 = SECURITY_CLASSIFICATION ( '', '', #168 ) ;
#193 = DIRECTION ( 'NONE',  ( 1.000000000000000000, 0.0000000000000000000, 0.0000000000000000000 ) ) ;
#194 = AXIS2_PLACEMENT_3D ( 'NONE', #164, #160, #138 ) ;
#195 = ORIENTED_EDGE ( 'NONE', *, *, #40, .F. ) ;
#196 = DIRECTION ( 'NONE',  ( -0.0000000000000000000, -0.0000000000000000000, 1.000000000000000000 ) ) ;
#197 = CARTESIAN_POINT ( 'NONE',  ( 0.0000000000000000000, 0.0000000000000000000, -1.465093389963222100 ) ) ;
#198 = APPROVAL_ROLE ( '' ) ;
#199 = VERTEX_POINT ( 'NONE', #172 ) ;
#200 = ORGANIZATION ( 'UNSPECIFIED', 'UNSPECIFIED', '' ) ;
#201 = DIRECTION ( 'NONE',  ( 1.000000000000000000, 0.0000000000000000000, 0.0000000000000000000 ) ) ;
#202 = CIRCLE ( 'NONE', #11, 12.69999999999999900 ) ;
#203 = APPROVAL_DATE_TIME ( #113, #153 ) ;
#204 = LOCAL_TIME ( 16, 37, 46.00000000000000000, #6 ) ;
#205 = LINE ( 'NONE', #263, #265 ) ;
#206 = EDGE_CURVE ( 'NONE', #190, #63, #276, .T. ) ;
#207 = EDGE_CURVE ( 'NONE', #149, #147, #152, .T. ) ;
#208 = DESIGN_CONTEXT ( 'detailed design', #277, 'design' ) ;
#209 = AXIS2_PLACEMENT_3D ( 'NONE', #47, #43, #38 ) ;
#210 = DIRECTION ( 'NONE',  ( -0.0000000000000000000, -0.0000000000000000000, 1.000000000000000000 ) ) ;
#211 = DATE_AND_TIME ( #2, #270 ) ;
#212 = PERSON_AND_ORGANIZATION ( #288, #200 ) ;
#213 = CARTESIAN_POINT ( 'NONE',  ( 0.0000000000000000000, 0.0000000000000000000, -90.53373984950754000 ) ) ;
#214 = FACE_OUTER_BOUND ( 'NONE', #120, .T. ) ;
#215 = CC_DESIGN_APPROVAL ( #12, ( #244 ) ) ;
#216 = DIRECTION ( 'NONE',  ( 1.000000000000000000, 0.0000000000000000000, 0.0000000000000000000 ) ) ;
#217 = DIRECTION ( 'NONE',  ( 0.0000000000000000000, 0.0000000000000000000, -1.000000000000000000 ) ) ;
#218 = FACE_OUTER_BOUND ( 'NONE', #116, .T. ) ;
#219 = CARTESIAN_POINT ( 'NONE',  ( 0.0000000000000000000, 0.0000000000000000000, 0.3934852537994680300 ) ) ;
#220 = CARTESIAN_POINT ( 'NONE',  ( -12.69999999999999900, 1.555301434917138400E-015, -1.323672033725912500 ) ) ;
#221 = CC_DESIGN_PERSON_AND_ORGANIZATION_ASSIGNMENT ( #46, #300, ( #192 ) ) ;
#222 = CYLINDRICAL_SURFACE ( 'NONE', #180, 12.69999999999999900 ) ;
#223 = CIRCLE ( 'NONE', #110, 12.55857864376269000 ) ;
#224 = CARTESIAN_POINT ( 'NONE',  ( -12.55857864376269000, 1.546641874354783400E-015, -1.465093389963222100 ) ) ;
#225 = CC_DESIGN_PERSON_AND_ORGANIZATION_ASSIGNMENT ( #286, #231, ( #159 ) ) ;
#226 = CARTESIAN_POINT ( 'NONE',  ( 12.69999999999999900, 0.0000000000000000000, -1.323672033725912500 ) ) ;
#227 = AXIS2_PLACEMENT_3D ( 'NONE', #135, #131, #125 ) ;
#228 = DIRECTION ( 'NONE',  ( 0.7071067811865474600, 0.0000000000000000000, 0.7071067811865475700 ) ) ;
#229 = CARTESIAN_POINT ( 'NONE',  ( 12.55857864376269000, 0.0000000000000000000, -1.465093389963222100 ) ) ;
#230 = DATE_TIME_ROLE ( 'creation_date' ) ;
#231 = PERSON_AND_ORGANIZATION_ROLE ( 'design_owner' ) ;
#232 = LINE ( 'NONE', #229, #233 ) ;
#233 = VECTOR ( 'NONE', #228, 1000.000000000000000 ) ;
#234 = CARTESIAN_POINT ( 'NONE',  ( 12.55857864376269000, 0.0000000000000000000, -1.465093389963222100 ) ) ;
#235 = PRODUCT_DEFINITION_SHAPE ( 'NONE', 'NONE',  #246 ) ;
#236 = VECTOR ( 'NONE', #7, 999.9999999999998900 ) ;
#237 = CARTESIAN_POINT ( 'NONE',  ( 12.69999999999999900, 0.0000000000000000000, 0.3934852537994680300 ) ) ;
#238 = DIRECTION ( 'NONE',  ( 1.000000000000000000, 0.0000000000000000000, 0.0000000000000000000 ) ) ;
#239 = CC_DESIGN_SECURITY_CLASSIFICATION ( #192, ( #244 ) ) ;
#240 = VECTOR ( 'NONE', #62, 1000.000000000000000 ) ;
#241 = DATE_AND_TIME ( #273, #294 ) ;
#242 = CARTESIAN_POINT ( 'NONE',  ( 0.0000000000000000000, 0.0000000000000000000, -90.53373984950754000 ) ) ;
#243 = APPROVAL ( #139, 'UNSPECIFIED' ) ;
#244 = PRODUCT_DEFINITION_FORMATION_WITH_SPECIFIED_SOURCE ( 'ANY', '', #159, .NOT_KNOWN. ) ;
#245 = CIRCLE ( 'NONE', #169, 12.69999999999999900 ) ;
#246 = PRODUCT_DEFINITION ( 'UNKNOWN', '', #244, #208 ) ;
#247 = EDGE_CURVE ( 'NONE', #143, #130, #81, .T. ) ;
#248 = EDGE_CURVE ( 'NONE', #128, #199, #245, .T. ) ;
#249 = DIRECTION ( 'NONE',  ( 0.0000000000000000000, -0.0000000000000000000, 1.000000000000000000 ) ) ;
#250 = PERSON_AND_ORGANIZATION_ROLE ( 'creator' ) ;
#251 = MANIFOLD_SOLID_BREP ( '24989-001-1-solid1', #274 ) ;
#252 = DIRECTION ( 'NONE',  ( -0.0000000000000000000, -0.0000000000000000000, 1.000000000000000000 ) ) ;
#253 = VECTOR ( 'NONE', #66, 1000.000000000000000 ) ;
#254 = ADVANCED_BREP_SHAPE_REPRESENTATION ( '24989-E0W', ( #251, #266 ), #189 ) ;
#255 = AXIS2_PLACEMENT_3D ( 'NONE', #257, #249, #238 ) ;
#256 = CC_DESIGN_DATE_AND_TIME_ASSIGNMENT ( #241, #230, ( #246 ) ) ;
#257 = CARTESIAN_POINT ( 'NONE',  ( 0.0000000000000000000, 0.0000000000000000000, -1.465093389963222600 ) ) ;
#258 = CONICAL_SURFACE ( 'NONE', #165, 12.69999999999999900, 0.7853981633974466100 ) ;
#259 = EDGE_CURVE ( 'NONE', #143, #149, #205, .T. ) ;
#260 = FACE_OUTER_BOUND ( 'NONE', #94, .T. ) ;
#261 = AXIS2_PLACEMENT_3D ( 'NONE', #123, #115, #111 ) ;
#262 = PLANE ( 'NONE',  #255 ) ;
#263 = CARTESIAN_POINT ( 'NONE',  ( -12.55857864376269000, 1.537982313792428700E-015, -1.465093389963222100 ) ) ;
#264 = DIRECTION ( 'NONE',  ( -1.000000000000000000, 1.224646799147353200E-016, 0.0000000000000000000 ) ) ;
#265 = VECTOR ( 'NONE', #87, 1000.000000000000000 ) ;
#266 = AXIS2_PLACEMENT_3D ( 'NONE', #58, #9, #5 ) ;
#267 = DIRECTION ( 'NONE',  ( -1.000000000000000000, 0.0000000000000000000, 0.0000000000000000000 ) ) ;
#268 = CC_DESIGN_APPROVAL ( #153, ( #246 ) ) ;
#269 = DIRECTION ( 'NONE',  ( 1.224646799147353200E-016, 1.000000000000000000, 0.0000000000000000000 ) ) ;
#270 = LOCAL_TIME ( 16, 37, 46.00000000000000000, #50 ) ;
#271 = EDGE_CURVE ( 'NONE', #147, #149, #202, .T. ) ;
#272 = AXIS2_PLACEMENT_3D ( 'NONE', #285, #269, #264 ) ;
#273 = CALENDAR_DATE ( 2015, 28, 4 ) ;
#274 = CLOSED_SHELL ( 'NONE', ( #151, #181, #161, #155, #299, #107, #15, #83, #279 ) ) ;
#275 = PERSON_AND_ORGANIZATION_ROLE ( 'design_supplier' ) ;
#276 = CIRCLE ( 'NONE', #194, 91.99999999999998600 ) ;
#277 = APPLICATION_CONTEXT ( 'configuration controlled 3d designs of mechanical parts and assemblies' ) ;
#278 = EDGE_CURVE ( 'NONE', #149, #199, #74, .T. ) ;
#279 = ADVANCED_FACE ( 'NONE', ( #214 ), #129, .T. ) ;
#280 = VECTOR ( 'NONE', #289, 999.9999999999998900 ) ;
#281 = FACE_OUTER_BOUND ( 'NONE', #102, .T. ) ;
#282 = CONICAL_SURFACE ( 'NONE', #119, 12.55857864376269000, 0.7853981633974482800 ) ;
#283 = APPROVAL_STATUS ( 'not_yet_approved' ) ;
#284 = APPROVAL_ROLE ( '' ) ;
#285 = CARTESIAN_POINT ( 'NONE',  ( 0.4990487068138646000, -6.111584014182251500E-017, -90.53373984950754000 ) ) ;
#286 = PERSON_AND_ORGANIZATION ( #288, #200 ) ;
#287 = CARTESIAN_POINT ( 'NONE',  ( -12.55857864376269000, 1.537982313792428500E-015, 0.5349066100367685400 ) ) ;
#288 = PERSON ( 'UNSPECIFIED', 'UNSPECIFIED', 'UNSPECIFIED', ('UNSPECIFIED'), ('UNSPECIFIED'), ('UNSPECIFIED') ) ;
#289 = DIRECTION ( 'NONE',  ( 0.7071067811865463500, 8.659560562354919300E-017, -0.7071067811865487900 ) ) ;
#290 = PERSON_AND_ORGANIZATION ( #288, #200 ) ;
#291 = CARTESIAN_POINT ( 'NONE',  ( 12.69999999999999900, 1.555301434917138400E-015, 0.3934852537994680300 ) ) ;
#292 = LINE ( 'NONE', #291, #280 ) ;
#293 = CYLINDRICAL_SURFACE ( 'NONE', #29, 12.69999999999999900 ) ;
#294 = LOCAL_TIME ( 16, 37, 46.00000000000000000, #133 ) ;
#295 = AXIS2_PLACEMENT_3D ( 'NONE', #197, #196, #193 ) ;
#296 = CALENDAR_DATE ( 2015, 28, 4 ) ;
#297 = CONICAL_SURFACE ( 'NONE', #295, 12.55857864376269000, 0.7853981633974482800 ) ;
#298 = CIRCLE ( 'NONE', #14, 12.55857864376269000 ) ;
#299 = ADVANCED_FACE ( 'NONE', ( #140 ), #183, .T. ) ;
#300 = PERSON_AND_ORGANIZATION_ROLE ( 'classification_officer' ) ;
#301 = AXIS2_PLACEMENT_3D ( 'NONE', #78, #145, #105 ) ;
ENDSEC;
END-ISO-10303-21;
