ISO-10303-21;
HEADER;
FILE_DESCRIPTION (( 'STEP AP203' ),
    '1' );
FILE_NAME ('Web Model 17600_17604.step',
    '2021-06-14T14:05:11',
    ( '' ),
    ( '' ),
    'SwSTEP 2.0',
    'SolidWorks 2018',
    '' );
FILE_SCHEMA (( 'CONFIG_CONTROL_DESIGN' ));
ENDSEC;

DATA;
#1 = AXIS2_PLACEMENT_3D ( 'NONE', #164, #51, #151 ) ;
#2 = CALENDAR_DATE ( 2021, 14, 6 ) ;
#3 = CC_DESIGN_PERSON_AND_ORGANIZATION_ASSIGNMENT ( #38, #169, ( #133 ) ) ;
#4 = PERSON ( 'UNSPECIFIED', 'UNSPECIFIED', 'UNSPECIFIED', ('UNSPECIFIED'), ('UNSPECIFIED'), ('UNSPECIFIED') ) ;
#5 = CARTESIAN_POINT ( 'NONE',  ( 0.000000000000000000, 0.000000000000000000, 0.000000000000000000 ) ) ;
#6 = FACE_OUTER_BOUND ( 'NONE', #27, .T. ) ;
#7 = DIRECTION ( 'NONE',  ( 1.000000000000000000, 0.000000000000000000, -0.000000000000000000 ) ) ;
#8 = CARTESIAN_POINT ( 'NONE',  ( -6.349999999999999645, 0.000000000000000000, 2.000000000000000000 ) ) ;
#9 =( NAMED_UNIT ( * ) PLANE_ANGLE_UNIT ( ) SI_UNIT ( $, .RADIAN. ) );
#10 = ORIENTED_EDGE ( 'NONE', *, *, #175, .F. ) ;
#11 = CARTESIAN_POINT ( 'NONE',  ( 0.000000000000000000, 0.000000000000000000, 0.000000000000000000 ) ) ;
#12 = CARTESIAN_POINT ( 'NONE',  ( 0.000000000000000000, 0.000000000000000000, 2.000000000000000000 ) ) ;
#13 = APPROVAL_DATE_TIME ( #111, #155 ) ;
#14 = VERTEX_POINT ( 'NONE', #110 ) ;
#15 = PRODUCT_DEFINITION_FORMATION_WITH_SPECIFIED_SOURCE ( 'ANY', '', #133, .NOT_KNOWN. ) ;
#16 = PERSON_AND_ORGANIZATION ( #4, #163 ) ;
#17 = CARTESIAN_POINT ( 'NONE',  ( 0.000000000000000000, 0.000000000000000000, 2.000000000000000000 ) ) ;
#18 = DIRECTION ( 'NONE',  ( 0.000000000000000000, 0.000000000000000000, 1.000000000000000000 ) ) ;
#19 = CARTESIAN_POINT ( 'NONE',  ( 0.000000000000000000, 0.000000000000000000, 0.000000000000000000 ) ) ;
#20 = DATE_TIME_ROLE ( 'creation_date' ) ;
#21 = DIRECTION ( 'NONE',  ( -0.000000000000000000, -0.000000000000000000, -1.000000000000000000 ) ) ;
#22 = ORIENTED_EDGE ( 'NONE', *, *, #55, .F. ) ;
#23 = CARTESIAN_POINT ( 'NONE',  ( 6.349999999999999645, 7.776507174585692163E-16, 2.000000000000000000 ) ) ;
#24 = LOCAL_TIME ( 10, 5, 11.00000000000000000, #174 ) ;
#25 = PRODUCT_DEFINITION ( 'UNKNOWN', '', #15, #132 ) ;
#26 = VECTOR ( 'NONE', #21, 1000.000000000000000 ) ;
#27 = EDGE_LOOP ( 'NONE', ( #60, #22 ) ) ;
#28 = PLANE ( 'NONE',  #104 ) ;
#29 = VERTEX_POINT ( 'NONE', #8 ) ;
#30 = DATE_AND_TIME ( #2, #127 ) ;
#31 = PERSON_AND_ORGANIZATION ( #4, #163 ) ;
#32 = ADVANCED_BREP_SHAPE_REPRESENTATION ( 'Web Model 17600_17604', ( #160, #1 ), #119 ) ;
#33 = VECTOR ( 'NONE', #150, 1000.000000000000000 ) ;
#34 = AXIS2_PLACEMENT_3D ( 'NONE', #5, #78, #42 ) ;
#35 = AXIS2_PLACEMENT_3D ( 'NONE', #95, #137, #86 ) ;
#36 = APPROVAL ( #65, 'UNSPECIFIED' ) ;
#37 = APPROVAL_PERSON_ORGANIZATION ( #44, #36, #66 ) ;
#38 = PERSON_AND_ORGANIZATION ( #4, #163 ) ;
#39 = APPROVAL ( #99, 'UNSPECIFIED' ) ;
#40 = PLANE ( 'NONE',  #152 ) ;
#41 =( LENGTH_UNIT ( ) NAMED_UNIT ( * ) SI_UNIT ( .MILLI., .METRE. ) );
#42 = DIRECTION ( 'NONE',  ( 1.000000000000000000, 0.000000000000000000, 0.000000000000000000 ) ) ;
#43 = APPROVAL_ROLE ( '' ) ;
#44 = PERSON_AND_ORGANIZATION ( #4, #163 ) ;
#45 = ADVANCED_FACE ( 'NONE', ( #48 ), #143, .T. ) ;
#46 = APPROVAL_PERSON_ORGANIZATION ( #31, #39, #43 ) ;
#47 = EDGE_CURVE ( 'NONE', #29, #14, #70, .T. ) ;
#48 = FACE_OUTER_BOUND ( 'NONE', #173, .T. ) ;
#49 = CALENDAR_DATE ( 2021, 14, 6 ) ;
#50 = PERSON_AND_ORGANIZATION_ROLE ( 'classification_officer' ) ;
#51 = DIRECTION ( 'NONE',  ( 0.000000000000000000, 0.000000000000000000, 1.000000000000000000 ) ) ;
#52 = DIRECTION ( 'NONE',  ( -0.000000000000000000, -0.000000000000000000, -1.000000000000000000 ) ) ;
#53 = MECHANICAL_CONTEXT ( 'NONE', #136, 'mechanical' ) ;
#54 = SECURITY_CLASSIFICATION_LEVEL ( 'unclassified' ) ;
#55 = EDGE_CURVE ( 'NONE', #138, #14, #63, .T. ) ;
#56 = COORDINATED_UNIVERSAL_TIME_OFFSET ( 5, 0, .BEHIND. ) ;
#57 = FACE_OUTER_BOUND ( 'NONE', #69, .T. ) ;
#58 = CLOSED_SHELL ( 'NONE', ( #45, #167, #71, #140 ) ) ;
#59 = LOCAL_TIME ( 10, 5, 11.00000000000000000, #131 ) ;
#60 = ORIENTED_EDGE ( 'NONE', *, *, #142, .F. ) ;
#61 = LOCAL_TIME ( 10, 5, 11.00000000000000000, #56 ) ;
#62 = CC_DESIGN_APPROVAL ( #36, ( #15 ) ) ;
#63 = CIRCLE ( 'NONE', #144, 6.349999999999999645 ) ;
#64 = APPROVAL_ROLE ( '' ) ;
#65 = APPROVAL_STATUS ( 'not_yet_approved' ) ;
#66 = APPROVAL_ROLE ( '' ) ;
#67 = ORIENTED_EDGE ( 'NONE', *, *, #125, .T. ) ;
#68 = DATE_AND_TIME ( #93, #59 ) ;
#69 = EDGE_LOOP ( 'NONE', ( #162, #122 ) ) ;
#70 = LINE ( 'NONE', #96, #33 ) ;
#71 = ADVANCED_FACE ( 'NONE', ( #57 ), #28, .T. ) ;
#72 = CARTESIAN_POINT ( 'NONE',  ( 0.000000000000000000, 0.000000000000000000, 2.000000000000000000 ) ) ;
#73 = APPROVAL_DATE_TIME ( #30, #39 ) ;
#74 = ORIENTED_EDGE ( 'NONE', *, *, #125, .F. ) ;
#75 = CC_DESIGN_DATE_AND_TIME_ASSIGNMENT ( #170, #97, ( #165 ) ) ;
#76 = ORIENTED_EDGE ( 'NONE', *, *, #47, .T. ) ;
#77 = PERSON_AND_ORGANIZATION ( #4, #163 ) ;
#78 = DIRECTION ( 'NONE',  ( 0.000000000000000000, 0.000000000000000000, 1.000000000000000000 ) ) ;
#79 = DIRECTION ( 'NONE',  ( 0.000000000000000000, 0.000000000000000000, 1.000000000000000000 ) ) ;
#80 = ORIENTED_EDGE ( 'NONE', *, *, #47, .F. ) ;
#81 = CC_DESIGN_PERSON_AND_ORGANIZATION_ASSIGNMENT ( #16, #85, ( #25 ) ) ;
#82 = EDGE_LOOP ( 'NONE', ( #74, #10, #76, #123 ) ) ;
#83 = CC_DESIGN_SECURITY_CLASSIFICATION ( #165, ( #15 ) ) ;
#84 = COORDINATED_UNIVERSAL_TIME_OFFSET ( 5, 0, .BEHIND. ) ;
#85 = PERSON_AND_ORGANIZATION_ROLE ( 'creator' ) ;
#86 = DIRECTION ( 'NONE',  ( 1.000000000000000000, 0.000000000000000000, 0.000000000000000000 ) ) ;
#87 = UNCERTAINTY_MEASURE_WITH_UNIT (LENGTH_MEASURE( 1.000000000000000082E-05 ), #41, 'distance_accuracy_value', 'NONE');
#88 = DATE_AND_TIME ( #161, #24 ) ;
#89 = CYLINDRICAL_SURFACE ( 'NONE', #118, 6.349999999999999645 ) ;
#90 = CC_DESIGN_PERSON_AND_ORGANIZATION_ASSIGNMENT ( #102, #50, ( #165 ) ) ;
#91 = COORDINATED_UNIVERSAL_TIME_OFFSET ( 5, 0, .BEHIND. ) ;
#92 = VERTEX_POINT ( 'NONE', #141 ) ;
#93 = CALENDAR_DATE ( 2021, 14, 6 ) ;
#94 = APPROVAL_STATUS ( 'not_yet_approved' ) ;
#95 = CARTESIAN_POINT ( 'NONE',  ( 0.000000000000000000, 0.000000000000000000, 2.000000000000000000 ) ) ;
#96 = CARTESIAN_POINT ( 'NONE',  ( -6.349999999999999645, 0.000000000000000000, 2.000000000000000000 ) ) ;
#97 = DATE_TIME_ROLE ( 'classification_date' ) ;
#98 = DIRECTION ( 'NONE',  ( 0.000000000000000000, 0.000000000000000000, 1.000000000000000000 ) ) ;
#99 = APPROVAL_STATUS ( 'not_yet_approved' ) ;
#100 = APPROVAL_DATE_TIME ( #88, #36 ) ;
#101 = CC_DESIGN_PERSON_AND_ORGANIZATION_ASSIGNMENT ( #139, #148, ( #15 ) ) ;
#102 = PERSON_AND_ORGANIZATION ( #4, #163 ) ;
#103 = DIRECTION ( 'NONE',  ( -1.000000000000000000, 0.000000000000000000, 0.000000000000000000 ) ) ;
#104 = AXIS2_PLACEMENT_3D ( 'NONE', #72, #156, #126 ) ;
#105 = DIRECTION ( 'NONE',  ( 1.000000000000000000, 0.000000000000000000, 0.000000000000000000 ) ) ;
#106 = DIRECTION ( 'NONE',  ( -1.000000000000000000, 0.000000000000000000, 0.000000000000000000 ) ) ;
#107 = APPLICATION_PROTOCOL_DEFINITION ( 'international standard', 'config_control_design', 1994, #136 ) ;
#108 = ORIENTED_EDGE ( 'NONE', *, *, #55, .T. ) ;
#109 = LINE ( 'NONE', #23, #26 ) ;
#110 = CARTESIAN_POINT ( 'NONE',  ( -6.349999999999999645, 0.000000000000000000, 0.000000000000000000 ) ) ;
#111 = DATE_AND_TIME ( #153, #157 ) ;
#112 = CIRCLE ( 'NONE', #35, 6.349999999999999645 ) ;
#113 = EDGE_CURVE ( 'NONE', #92, #29, #112, .T. ) ;
#114 = APPROVAL_PERSON_ORGANIZATION ( #77, #155, #64 ) ;
#115 = CARTESIAN_POINT ( 'NONE',  ( 6.349999999999999645, 7.776507174585692163E-16, 0.000000000000000000 ) ) ;
#116 = APPLICATION_CONTEXT ( 'configuration controlled 3d designs of mechanical parts and assemblies' ) ;
#117 = PERSON_AND_ORGANIZATION_ROLE ( 'design_supplier' ) ;
#118 = AXIS2_PLACEMENT_3D ( 'NONE', #17, #52, #106 ) ;
#119 =( GEOMETRIC_REPRESENTATION_CONTEXT ( 3 ) GLOBAL_UNCERTAINTY_ASSIGNED_CONTEXT ( ( #87 ) ) GLOBAL_UNIT_ASSIGNED_CONTEXT ( ( #41, #9, #166 ) ) REPRESENTATION_CONTEXT ( 'NONE', 'WORKASPACE' ) );
#120 = AXIS2_PLACEMENT_3D ( 'NONE', #12, #129, #103 ) ;
#121 = PERSON_AND_ORGANIZATION ( #4, #163 ) ;
#122 = ORIENTED_EDGE ( 'NONE', *, *, #113, .T. ) ;
#123 = ORIENTED_EDGE ( 'NONE', *, *, #142, .T. ) ;
#124 = CC_DESIGN_DATE_AND_TIME_ASSIGNMENT ( #68, #20, ( #25 ) ) ;
#125 = EDGE_CURVE ( 'NONE', #92, #138, #109, .T. ) ;
#126 = DIRECTION ( 'NONE',  ( 1.000000000000000000, 0.000000000000000000, -0.000000000000000000 ) ) ;
#127 = LOCAL_TIME ( 10, 5, 11.00000000000000000, #84 ) ;
#128 = CIRCLE ( 'NONE', #34, 6.349999999999999645 ) ;
#129 = DIRECTION ( 'NONE',  ( -0.000000000000000000, -0.000000000000000000, -1.000000000000000000 ) ) ;
#130 = AXIS2_PLACEMENT_3D ( 'NONE', #147, #98, #168 ) ;
#131 = COORDINATED_UNIVERSAL_TIME_OFFSET ( 5, 0, .BEHIND. ) ;
#132 = DESIGN_CONTEXT ( 'detailed design', #116, 'design' ) ;
#133 = PRODUCT ( 'Web Model 17600_17604', 'Web Model 17600_17604', '', ( #53 ) ) ;
#134 = APPLICATION_PROTOCOL_DEFINITION ( 'international standard', 'config_control_design', 1994, #116 ) ;
#135 = ORIENTED_EDGE ( 'NONE', *, *, #113, .F. ) ;
#136 = APPLICATION_CONTEXT ( 'configuration controlled 3d designs of mechanical parts and assemblies' ) ;
#137 = DIRECTION ( 'NONE',  ( 0.000000000000000000, 0.000000000000000000, 1.000000000000000000 ) ) ;
#138 = VERTEX_POINT ( 'NONE', #115 ) ;
#139 = PERSON_AND_ORGANIZATION ( #4, #163 ) ;
#140 = ADVANCED_FACE ( 'NONE', ( #6 ), #40, .F. ) ;
#141 = CARTESIAN_POINT ( 'NONE',  ( 6.349999999999999645, 7.776507174585692163E-16, 2.000000000000000000 ) ) ;
#142 = EDGE_CURVE ( 'NONE', #14, #138, #128, .T. ) ;
#143 = CYLINDRICAL_SURFACE ( 'NONE', #120, 6.349999999999999645 ) ;
#144 = AXIS2_PLACEMENT_3D ( 'NONE', #11, #18, #105 ) ;
#145 = CC_DESIGN_APPROVAL ( #39, ( #25 ) ) ;
#146 = SHAPE_DEFINITION_REPRESENTATION ( #172, #32 ) ;
#147 = CARTESIAN_POINT ( 'NONE',  ( 0.000000000000000000, 0.000000000000000000, 2.000000000000000000 ) ) ;
#148 = PERSON_AND_ORGANIZATION_ROLE ( 'creator' ) ;
#149 = CC_DESIGN_APPROVAL ( #155, ( #165 ) ) ;
#150 = DIRECTION ( 'NONE',  ( -0.000000000000000000, -0.000000000000000000, -1.000000000000000000 ) ) ;
#151 = DIRECTION ( 'NONE',  ( 1.000000000000000000, 0.000000000000000000, 0.000000000000000000 ) ) ;
#152 = AXIS2_PLACEMENT_3D ( 'NONE', #19, #79, #7 ) ;
#153 = CALENDAR_DATE ( 2021, 14, 6 ) ;
#154 = CC_DESIGN_PERSON_AND_ORGANIZATION_ASSIGNMENT ( #121, #117, ( #15 ) ) ;
#155 = APPROVAL ( #94, 'UNSPECIFIED' ) ;
#156 = DIRECTION ( 'NONE',  ( 0.000000000000000000, 0.000000000000000000, 1.000000000000000000 ) ) ;
#157 = LOCAL_TIME ( 10, 5, 11.00000000000000000, #91 ) ;
#158 = CIRCLE ( 'NONE', #130, 6.349999999999999645 ) ;
#159 = PRODUCT_RELATED_PRODUCT_CATEGORY ( 'detail', '', ( #133 ) ) ;
#160 = MANIFOLD_SOLID_BREP ( 'Boss-Extrude1', #58 ) ;
#161 = CALENDAR_DATE ( 2021, 14, 6 ) ;
#162 = ORIENTED_EDGE ( 'NONE', *, *, #175, .T. ) ;
#163 = ORGANIZATION ( 'UNSPECIFIED', 'UNSPECIFIED', '' ) ;
#164 = CARTESIAN_POINT ( 'NONE',  ( 0.000000000000000000, 0.000000000000000000, 0.000000000000000000 ) ) ;
#165 = SECURITY_CLASSIFICATION ( '', '', #54 ) ;
#166 =( NAMED_UNIT ( * ) SI_UNIT ( $, .STERADIAN. ) SOLID_ANGLE_UNIT ( ) );
#167 = ADVANCED_FACE ( 'NONE', ( #171 ), #89, .T. ) ;
#168 = DIRECTION ( 'NONE',  ( 1.000000000000000000, 0.000000000000000000, 0.000000000000000000 ) ) ;
#169 = PERSON_AND_ORGANIZATION_ROLE ( 'design_owner' ) ;
#170 = DATE_AND_TIME ( #49, #61 ) ;
#171 = FACE_OUTER_BOUND ( 'NONE', #82, .T. ) ;
#172 = PRODUCT_DEFINITION_SHAPE ( 'NONE', 'NONE',  #25 ) ;
#173 = EDGE_LOOP ( 'NONE', ( #135, #67, #108, #80 ) ) ;
#174 = COORDINATED_UNIVERSAL_TIME_OFFSET ( 5, 0, .BEHIND. ) ;
#175 = EDGE_CURVE ( 'NONE', #29, #92, #158, .T. ) ;
ENDSEC;
END-ISO-10303-21;
