ISO-10303-21;
HEADER;
FILE_DESCRIPTION (( 'STEP AP203' ),
    '1' );
FILE_NAME ('Web Model 83358.STEP',
    '2017-02-01T15:19:52',
    ( '' ),
    ( '' ),
    'SwSTEP 2.0',
    'SolidWorks 2016',
    '' );
FILE_SCHEMA (( 'CONFIG_CONTROL_DESIGN' ));
ENDSEC;

DATA;
#1 = EDGE_LOOP ( 'NONE', ( #141, #6 ) ) ;
#2 = DIRECTION ( 'NONE',  ( 0.0000000000000000000, 0.0000000000000000000, -1.000000000000000000 ) ) ;
#3 = CARTESIAN_POINT ( 'NONE',  ( 2.000000000000000000, 0.0000000000000000000, 0.0000000000000000000 ) ) ;
#4 = CC_DESIGN_DATE_AND_TIME_ASSIGNMENT ( #86, #133, ( #132 ) ) ;
#5 = DIRECTION ( 'NONE',  ( 1.000000000000000000, 0.0000000000000000000, 0.0000000000000000000 ) ) ;
#6 = ORIENTED_EDGE ( 'NONE', *, *, #103, .T. ) ;
#7 = AXIS2_PLACEMENT_3D ( 'NONE', #111, #124, #30 ) ;
#8 = COORDINATED_UNIVERSAL_TIME_OFFSET ( 5, 0, .BEHIND. ) ;
#9 = LOCAL_TIME ( 10, 19, 52.00000000000000000, #36 ) ;
#10 = EDGE_LOOP ( 'NONE', ( #42, #105, #144, #72 ) ) ;
#11 = EDGE_CURVE ( 'NONE', #155, #33, #122, .T. ) ;
#12 =( NAMED_UNIT ( * ) SI_UNIT ( $, .STERADIAN. ) SOLID_ANGLE_UNIT ( ) );
#13 = APPROVAL_STATUS ( 'not_yet_approved' ) ;
#14 = FACE_OUTER_BOUND ( 'NONE', #10, .T. ) ;
#15 = DIRECTION ( 'NONE',  ( 0.0000000000000000000, 0.0000000000000000000, -1.000000000000000000 ) ) ;
#16 = PERSON_AND_ORGANIZATION ( #108, #95 ) ;
#17 = PERSON_AND_ORGANIZATION_ROLE ( 'creator' ) ;
#18 = PLANE ( 'NONE',  #60 ) ;
#19 = CARTESIAN_POINT ( 'NONE',  ( 0.0000000000000000000, 0.0000000000000000000, 0.0000000000000000000 ) ) ;
#20 = CARTESIAN_POINT ( 'NONE',  ( 2.000000000000000000, 0.0000000000000000000, 25.00000000000000000 ) ) ;
#21 = EDGE_CURVE ( 'NONE', #74, #33, #166, .T. ) ;
#22 = APPROVAL_STATUS ( 'not_yet_approved' ) ;
#23 = SHAPE_DEFINITION_REPRESENTATION ( #100, #46 ) ;
#24 =( NAMED_UNIT ( * ) PLANE_ANGLE_UNIT ( ) SI_UNIT ( $, .RADIAN. ) );
#25 = PERSON_AND_ORGANIZATION_ROLE ( 'creator' ) ;
#26 = APPROVAL_DATE_TIME ( #104, #93 ) ;
#27 = AXIS2_PLACEMENT_3D ( 'NONE', #92, #5, #44 ) ;
#28 = APPROVAL_DATE_TIME ( #128, #125 ) ;
#29 = DATE_TIME_ROLE ( 'classification_date' ) ;
#30 = DIRECTION ( 'NONE',  ( 0.0000000000000000000, 0.0000000000000000000, 1.000000000000000000 ) ) ;
#31 = CC_DESIGN_PERSON_AND_ORGANIZATION_ASSIGNMENT ( #16, #175, ( #157 ) ) ;
#32 = ORIENTED_EDGE ( 'NONE', *, *, #168, .F. ) ;
#33 = VERTEX_POINT ( 'NONE', #163 ) ;
#34 = AXIS2_PLACEMENT_3D ( 'NONE', #117, #89, #15 ) ;
#35 = CALENDAR_DATE ( 2017, 1, 2 ) ;
#36 = COORDINATED_UNIVERSAL_TIME_OFFSET ( 5, 0, .BEHIND. ) ;
#37 = DIRECTION ( 'NONE',  ( -1.000000000000000000, -0.0000000000000000000, -0.0000000000000000000 ) ) ;
#38 = SECURITY_CLASSIFICATION_LEVEL ( 'unclassified' ) ;
#39 = ADVANCED_FACE ( 'NONE', ( #81 ), #18, .F. ) ;
#40 = LOCAL_TIME ( 10, 19, 52.00000000000000000, #82 ) ;
#41 = CYLINDRICAL_SURFACE ( 'NONE', #7, 25.00000000000000000 ) ;
#42 = ORIENTED_EDGE ( 'NONE', *, *, #103, .F. ) ;
#43 = DIRECTION ( 'NONE',  ( 1.000000000000000000, 0.0000000000000000000, 0.0000000000000000000 ) ) ;
#44 = DIRECTION ( 'NONE',  ( 0.0000000000000000000, 0.0000000000000000000, -1.000000000000000000 ) ) ;
#45 = DIRECTION ( 'NONE',  ( 1.000000000000000000, 0.0000000000000000000, 0.0000000000000000000 ) ) ;
#46 = ADVANCED_BREP_SHAPE_REPRESENTATION ( 'Web Model 83358', ( #130, #69 ), #62 ) ;
#47 = VERTEX_POINT ( 'NONE', #136 ) ;
#48 = PERSON_AND_ORGANIZATION ( #108, #95 ) ;
#49 = DIRECTION ( 'NONE',  ( 0.0000000000000000000, 0.0000000000000000000, -1.000000000000000000 ) ) ;
#50 = CARTESIAN_POINT ( 'NONE',  ( 2.000000000000000000, 0.0000000000000000000, 0.0000000000000000000 ) ) ;
#51 = CC_DESIGN_SECURITY_CLASSIFICATION ( #157, ( #106 ) ) ;
#52 = FACE_OUTER_BOUND ( 'NONE', #1, .T. ) ;
#53 = ADVANCED_FACE ( 'NONE', ( #99 ), #41, .T. ) ;
#54 = APPROVAL_ROLE ( '' ) ;
#55 = PERSON_AND_ORGANIZATION_ROLE ( 'design_supplier' ) ;
#56 = APPROVAL_STATUS ( 'not_yet_approved' ) ;
#57 = CARTESIAN_POINT ( 'NONE',  ( 0.0000000000000000000, 3.061616997868383000E-015, -25.00000000000000000 ) ) ;
#58 = COORDINATED_UNIVERSAL_TIME_OFFSET ( 5, 0, .BEHIND. ) ;
#59 = LOCAL_TIME ( 10, 19, 52.00000000000000000, #58 ) ;
#60 = AXIS2_PLACEMENT_3D ( 'NONE', #19, #43, #2 ) ;
#61 = MECHANICAL_CONTEXT ( 'NONE', #75, 'mechanical' ) ;
#62 =( GEOMETRIC_REPRESENTATION_CONTEXT ( 3 ) GLOBAL_UNCERTAINTY_ASSIGNED_CONTEXT ( ( #64 ) ) GLOBAL_UNIT_ASSIGNED_CONTEXT ( ( #90, #24, #12 ) ) REPRESENTATION_CONTEXT ( 'NONE', 'WORKASPACE' ) );
#63 = CIRCLE ( 'NONE', #80, 25.00000000000000000 ) ;
#64 = UNCERTAINTY_MEASURE_WITH_UNIT (LENGTH_MEASURE( 1.000000000000000100E-005 ), #90, 'distance_accuracy_value', 'NONE');
#65 = CARTESIAN_POINT ( 'NONE',  ( 2.000000000000000000, 3.061616997868383000E-015, -25.00000000000000000 ) ) ;
#66 = EDGE_LOOP ( 'NONE', ( #110, #84 ) ) ;
#67 = PLANE ( 'NONE',  #70 ) ;
#68 = CALENDAR_DATE ( 2017, 1, 2 ) ;
#69 = AXIS2_PLACEMENT_3D ( 'NONE', #159, #77, #131 ) ;
#70 = AXIS2_PLACEMENT_3D ( 'NONE', #3, #73, #171 ) ;
#71 = VECTOR ( 'NONE', #156, 1000.000000000000000 ) ;
#72 = ORIENTED_EDGE ( 'NONE', *, *, #21, .F. ) ;
#73 = DIRECTION ( 'NONE',  ( 1.000000000000000000, 0.0000000000000000000, 0.0000000000000000000 ) ) ;
#74 = VERTEX_POINT ( 'NONE', #20 ) ;
#75 = APPLICATION_CONTEXT ( 'configuration controlled 3d designs of mechanical parts and assemblies' ) ;
#76 = AXIS2_PLACEMENT_3D ( 'NONE', #101, #37, #120 ) ;
#77 = DIRECTION ( 'NONE',  ( 0.0000000000000000000, 0.0000000000000000000, 1.000000000000000000 ) ) ;
#78 = APPROVAL_ROLE ( '' ) ;
#79 = LOCAL_TIME ( 10, 19, 52.00000000000000000, #96 ) ;
#80 = AXIS2_PLACEMENT_3D ( 'NONE', #50, #107, #49 ) ;
#81 = FACE_OUTER_BOUND ( 'NONE', #66, .T. ) ;
#82 = COORDINATED_UNIVERSAL_TIME_OFFSET ( 5, 0, .BEHIND. ) ;
#83 = PERSON_AND_ORGANIZATION ( #108, #95 ) ;
#84 = ORIENTED_EDGE ( 'NONE', *, *, #11, .F. ) ;
#85 = APPROVAL_PERSON_ORGANIZATION ( #165, #125, #54 ) ;
#86 = DATE_AND_TIME ( #147, #59 ) ;
#87 = APPLICATION_PROTOCOL_DEFINITION ( 'international standard', 'config_control_design', 1994, #75 ) ;
#88 = APPLICATION_PROTOCOL_DEFINITION ( 'international standard', 'config_control_design', 1994, #119 ) ;
#89 = DIRECTION ( 'NONE',  ( 1.000000000000000000, 0.0000000000000000000, 0.0000000000000000000 ) ) ;
#90 =( LENGTH_UNIT ( ) NAMED_UNIT ( * ) SI_UNIT ( .MILLI., .METRE. ) );
#91 = CIRCLE ( 'NONE', #114, 25.00000000000000000 ) ;
#92 = CARTESIAN_POINT ( 'NONE',  ( 0.0000000000000000000, 0.0000000000000000000, 0.0000000000000000000 ) ) ;
#93 = APPROVAL ( #13, 'UNSPECIFIED' ) ;
#94 = DATE_AND_TIME ( #146, #79 ) ;
#95 = ORGANIZATION ( 'UNSPECIFIED', 'UNSPECIFIED', '' ) ;
#96 = COORDINATED_UNIVERSAL_TIME_OFFSET ( 5, 0, .BEHIND. ) ;
#97 = ORIENTED_EDGE ( 'NONE', *, *, #161, .F. ) ;
#98 = CC_DESIGN_APPROVAL ( #125, ( #157 ) ) ;
#99 = FACE_OUTER_BOUND ( 'NONE', #134, .T. ) ;
#100 = PRODUCT_DEFINITION_SHAPE ( 'NONE', 'NONE',  #132 ) ;
#101 = CARTESIAN_POINT ( 'NONE',  ( 2.000000000000000000, 0.0000000000000000000, 0.0000000000000000000 ) ) ;
#102 = APPROVAL_ROLE ( '' ) ;
#103 = EDGE_CURVE ( 'NONE', #47, #74, #91, .T. ) ;
#104 = DATE_AND_TIME ( #35, #143 ) ;
#105 = ORIENTED_EDGE ( 'NONE', *, *, #161, .T. ) ;
#106 = PRODUCT_DEFINITION_FORMATION_WITH_SPECIFIED_SOURCE ( 'ANY', '', #127, .NOT_KNOWN. ) ;
#107 = DIRECTION ( 'NONE',  ( 1.000000000000000000, 0.0000000000000000000, 0.0000000000000000000 ) ) ;
#108 = PERSON ( 'UNSPECIFIED', 'UNSPECIFIED', 'UNSPECIFIED', ('UNSPECIFIED'), ('UNSPECIFIED'), ('UNSPECIFIED') ) ;
#109 = CARTESIAN_POINT ( 'NONE',  ( 2.000000000000000000, 0.0000000000000000000, 25.00000000000000000 ) ) ;
#110 = ORIENTED_EDGE ( 'NONE', *, *, #172, .F. ) ;
#111 = CARTESIAN_POINT ( 'NONE',  ( 2.000000000000000000, 0.0000000000000000000, 0.0000000000000000000 ) ) ;
#112 = CIRCLE ( 'NONE', #34, 25.00000000000000000 ) ;
#113 = ORIENTED_EDGE ( 'NONE', *, *, #172, .T. ) ;
#114 = AXIS2_PLACEMENT_3D ( 'NONE', #150, #45, #138 ) ;
#115 = DESIGN_CONTEXT ( 'detailed design', #119, 'design' ) ;
#116 = LINE ( 'NONE', #65, #71 ) ;
#117 = CARTESIAN_POINT ( 'NONE',  ( 0.0000000000000000000, 0.0000000000000000000, 0.0000000000000000000 ) ) ;
#118 = APPROVAL_PERSON_ORGANIZATION ( #83, #152, #102 ) ;
#119 = APPLICATION_CONTEXT ( 'configuration controlled 3d designs of mechanical parts and assemblies' ) ;
#120 = DIRECTION ( 'NONE',  ( 0.0000000000000000000, 0.0000000000000000000, 1.000000000000000000 ) ) ;
#121 = PERSON_AND_ORGANIZATION ( #108, #95 ) ;
#122 = CIRCLE ( 'NONE', #27, 25.00000000000000000 ) ;
#123 = ADVANCED_FACE ( 'NONE', ( #52 ), #67, .T. ) ;
#124 = DIRECTION ( 'NONE',  ( -1.000000000000000000, -0.0000000000000000000, -0.0000000000000000000 ) ) ;
#125 = APPROVAL ( #56, 'UNSPECIFIED' ) ;
#126 = APPROVAL_PERSON_ORGANIZATION ( #148, #93, #78 ) ;
#127 = PRODUCT ( 'Web Model 83358', 'Web Model 83358', '', ( #61 ) ) ;
#128 = DATE_AND_TIME ( #145, #40 ) ;
#129 = CC_DESIGN_PERSON_AND_ORGANIZATION_ASSIGNMENT ( #121, #17, ( #106 ) ) ;
#130 = MANIFOLD_SOLID_BREP ( 'Extrude1', #149 ) ;
#131 = DIRECTION ( 'NONE',  ( 1.000000000000000000, 0.0000000000000000000, 0.0000000000000000000 ) ) ;
#132 = PRODUCT_DEFINITION ( 'UNKNOWN', '', #106, #115 ) ;
#133 = DATE_TIME_ROLE ( 'creation_date' ) ;
#134 = EDGE_LOOP ( 'NONE', ( #97, #32, #170, #113 ) ) ;
#135 = CC_DESIGN_PERSON_AND_ORGANIZATION_ASSIGNMENT ( #48, #55, ( #106 ) ) ;
#136 = CARTESIAN_POINT ( 'NONE',  ( 2.000000000000000000, 3.061616997868383000E-015, -25.00000000000000000 ) ) ;
#137 = VECTOR ( 'NONE', #164, 1000.000000000000000 ) ;
#138 = DIRECTION ( 'NONE',  ( 0.0000000000000000000, 0.0000000000000000000, -1.000000000000000000 ) ) ;
#139 = PRODUCT_RELATED_PRODUCT_CATEGORY ( 'detail', '', ( #127 ) ) ;
#140 = PERSON_AND_ORGANIZATION ( #108, #95 ) ;
#141 = ORIENTED_EDGE ( 'NONE', *, *, #168, .T. ) ;
#142 = CC_DESIGN_PERSON_AND_ORGANIZATION_ASSIGNMENT ( #140, #174, ( #127 ) ) ;
#143 = LOCAL_TIME ( 10, 19, 52.00000000000000000, #8 ) ;
#144 = ORIENTED_EDGE ( 'NONE', *, *, #11, .T. ) ;
#145 = CALENDAR_DATE ( 2017, 1, 2 ) ;
#146 = CALENDAR_DATE ( 2017, 1, 2 ) ;
#147 = CALENDAR_DATE ( 2017, 1, 2 ) ;
#148 = PERSON_AND_ORGANIZATION ( #108, #95 ) ;
#149 = CLOSED_SHELL ( 'NONE', ( #162, #53, #123, #39 ) ) ;
#150 = CARTESIAN_POINT ( 'NONE',  ( 2.000000000000000000, 0.0000000000000000000, 0.0000000000000000000 ) ) ;
#151 = CC_DESIGN_APPROVAL ( #93, ( #132 ) ) ;
#152 = APPROVAL ( #22, 'UNSPECIFIED' ) ;
#153 = CYLINDRICAL_SURFACE ( 'NONE', #76, 25.00000000000000000 ) ;
#154 = DATE_AND_TIME ( #68, #9 ) ;
#155 = VERTEX_POINT ( 'NONE', #57 ) ;
#156 = DIRECTION ( 'NONE',  ( -1.000000000000000000, -0.0000000000000000000, -0.0000000000000000000 ) ) ;
#157 = SECURITY_CLASSIFICATION ( '', '', #38 ) ;
#158 = APPROVAL_DATE_TIME ( #154, #152 ) ;
#159 = CARTESIAN_POINT ( 'NONE',  ( 0.0000000000000000000, 0.0000000000000000000, 0.0000000000000000000 ) ) ;
#160 = PERSON_AND_ORGANIZATION ( #108, #95 ) ;
#161 = EDGE_CURVE ( 'NONE', #47, #155, #116, .T. ) ;
#162 = ADVANCED_FACE ( 'NONE', ( #14 ), #153, .T. ) ;
#163 = CARTESIAN_POINT ( 'NONE',  ( 0.0000000000000000000, 0.0000000000000000000, 25.00000000000000000 ) ) ;
#164 = DIRECTION ( 'NONE',  ( -1.000000000000000000, -0.0000000000000000000, -0.0000000000000000000 ) ) ;
#165 = PERSON_AND_ORGANIZATION ( #108, #95 ) ;
#166 = LINE ( 'NONE', #109, #137 ) ;
#167 = CC_DESIGN_PERSON_AND_ORGANIZATION_ASSIGNMENT ( #160, #25, ( #132 ) ) ;
#168 = EDGE_CURVE ( 'NONE', #74, #47, #63, .T. ) ;
#169 = CC_DESIGN_APPROVAL ( #152, ( #106 ) ) ;
#170 = ORIENTED_EDGE ( 'NONE', *, *, #21, .T. ) ;
#171 = DIRECTION ( 'NONE',  ( 0.0000000000000000000, 0.0000000000000000000, -1.000000000000000000 ) ) ;
#172 = EDGE_CURVE ( 'NONE', #33, #155, #112, .T. ) ;
#173 = CC_DESIGN_DATE_AND_TIME_ASSIGNMENT ( #94, #29, ( #157 ) ) ;
#174 = PERSON_AND_ORGANIZATION_ROLE ( 'design_owner' ) ;
#175 = PERSON_AND_ORGANIZATION_ROLE ( 'classification_officer' ) ;
ENDSEC;
END-ISO-10303-21;
