ISO-10303-21;
HEADER;
FILE_DESCRIPTION (( 'STEP AP203' ),
    '1' );
FILE_NAME ('Web Model 43896_43896.step',
    '2017-03-01T21:17:55',
    ( '' ),
    ( '' ),
    'SwSTEP 2.0',
    'SolidWorks 2016',
    '' );
FILE_SCHEMA (( 'CONFIG_CONTROL_DESIGN' ));
ENDSEC;

DATA;
#1 = CALENDAR_DATE ( 2017, 1, 3 ) ;
#2 = ADVANCED_BREP_SHAPE_REPRESENTATION ( 'Web Model 43896_43896', ( #103, #22 ), #43 ) ;
#3 = CARTESIAN_POINT ( 'NONE',  ( -75.00000000000001400, 0.0000000000000000000, 3.250000000000000000 ) ) ;
#4 = CARTESIAN_POINT ( 'NONE',  ( 0.0000000000000000000, 0.0000000000000000000, -3.250000000000000000 ) ) ;
#5 = DIRECTION ( 'NONE',  ( 0.0000000000000000000, 0.0000000000000000000, 1.000000000000000000 ) ) ;
#6 = PLANE ( 'NONE',  #59 ) ;
#7 = APPLICATION_PROTOCOL_DEFINITION ( 'international standard', 'config_control_design', 1994, #120 ) ;
#8 = CARTESIAN_POINT ( 'NONE',  ( 0.0000000000000000000, 0.0000000000000000000, 0.0000000000000000000 ) ) ;
#9 = APPROVAL_DATE_TIME ( #160, #78 ) ;
#10 = APPROVAL_STATUS ( 'not_yet_approved' ) ;
#11 = DATE_AND_TIME ( #70, #12 ) ;
#12 = LOCAL_TIME ( 16, 17, 55.00000000000000000, #30 ) ;
#13 = ORIENTED_EDGE ( 'NONE', *, *, #27, .T. ) ;
#14 = PERSON_AND_ORGANIZATION_ROLE ( 'design_owner' ) ;
#15 = DIRECTION ( 'NONE',  ( -0.0000000000000000000, -0.0000000000000000000, -1.000000000000000000 ) ) ;
#16 = CARTESIAN_POINT ( 'NONE',  ( 0.0000000000000000000, 0.0000000000000000000, 3.250000000000000000 ) ) ;
#17 = DIRECTION ( 'NONE',  ( 1.000000000000000000, 0.0000000000000000000, 0.0000000000000000000 ) ) ;
#18 = PERSON_AND_ORGANIZATION_ROLE ( 'design_supplier' ) ;
#19 = DIRECTION ( 'NONE',  ( 0.0000000000000000000, 0.0000000000000000000, 1.000000000000000000 ) ) ;
#20 = SECURITY_CLASSIFICATION_LEVEL ( 'unclassified' ) ;
#21 = ORIENTED_EDGE ( 'NONE', *, *, #88, .F. ) ;
#22 = AXIS2_PLACEMENT_3D ( 'NONE', #8, #28, #168 ) ;
#23 = UNCERTAINTY_MEASURE_WITH_UNIT (LENGTH_MEASURE( 1.000000000000000100E-005 ), #39, 'distance_accuracy_value', 'NONE');
#24 = DIRECTION ( 'NONE',  ( -0.0000000000000000000, -0.0000000000000000000, -1.000000000000000000 ) ) ;
#25 = APPROVAL ( #124, 'UNSPECIFIED' ) ;
#26 = DIRECTION ( 'NONE',  ( -1.000000000000000000, 0.0000000000000000000, 0.0000000000000000000 ) ) ;
#27 = EDGE_CURVE ( 'NONE', #130, #115, #33, .T. ) ;
#28 = DIRECTION ( 'NONE',  ( 0.0000000000000000000, 0.0000000000000000000, 1.000000000000000000 ) ) ;
#29 = ORIENTED_EDGE ( 'NONE', *, *, #60, .T. ) ;
#30 = COORDINATED_UNIVERSAL_TIME_OFFSET ( 5, 0, .BEHIND. ) ;
#31 = CC_DESIGN_PERSON_AND_ORGANIZATION_ASSIGNMENT ( #75, #14, ( #85 ) ) ;
#32 = ADVANCED_FACE ( 'NONE', ( #171 ), #111, .T. ) ;
#33 = LINE ( 'NONE', #68, #143 ) ;
#34 = PRODUCT_DEFINITION ( 'UNKNOWN', '', #100, #117 ) ;
#35 = ORIENTED_EDGE ( 'NONE', *, *, #149, .T. ) ;
#36 = CC_DESIGN_PERSON_AND_ORGANIZATION_ASSIGNMENT ( #87, #93, ( #100 ) ) ;
#37 = APPROVAL_DATE_TIME ( #11, #66 ) ;
#38 = PERSON_AND_ORGANIZATION ( #99, #45 ) ;
#39 =( LENGTH_UNIT ( ) NAMED_UNIT ( * ) SI_UNIT ( .MILLI., .METRE. ) );
#40 = DIRECTION ( 'NONE',  ( -0.0000000000000000000, -0.0000000000000000000, -1.000000000000000000 ) ) ;
#41 = CARTESIAN_POINT ( 'NONE',  ( -75.00000000000001400, 0.0000000000000000000, -3.250000000000000000 ) ) ;
#42 = APPROVAL_ROLE ( '' ) ;
#43 =( GEOMETRIC_REPRESENTATION_CONTEXT ( 3 ) GLOBAL_UNCERTAINTY_ASSIGNED_CONTEXT ( ( #23 ) ) GLOBAL_UNIT_ASSIGNED_CONTEXT ( ( #39, #67, #92 ) ) REPRESENTATION_CONTEXT ( 'NONE', 'WORKASPACE' ) );
#44 = EDGE_CURVE ( 'NONE', #130, #81, #62, .T. ) ;
#45 = ORGANIZATION ( 'UNSPECIFIED', 'UNSPECIFIED', '' ) ;
#46 = CC_DESIGN_PERSON_AND_ORGANIZATION_ASSIGNMENT ( #38, #18, ( #100 ) ) ;
#47 = ORIENTED_EDGE ( 'NONE', *, *, #44, .T. ) ;
#48 = AXIS2_PLACEMENT_3D ( 'NONE', #105, #50, #163 ) ;
#49 = DIRECTION ( 'NONE',  ( 1.000000000000000000, 0.0000000000000000000, 0.0000000000000000000 ) ) ;
#50 = DIRECTION ( 'NONE',  ( 0.0000000000000000000, 0.0000000000000000000, 1.000000000000000000 ) ) ;
#51 = AXIS2_PLACEMENT_3D ( 'NONE', #64, #5, #17 ) ;
#52 = COORDINATED_UNIVERSAL_TIME_OFFSET ( 5, 0, .BEHIND. ) ;
#53 = DIRECTION ( 'NONE',  ( 1.000000000000000000, 0.0000000000000000000, 0.0000000000000000000 ) ) ;
#54 = SECURITY_CLASSIFICATION ( '', '', #20 ) ;
#55 = ORIENTED_EDGE ( 'NONE', *, *, #60, .F. ) ;
#56 = APPROVAL_PERSON_ORGANIZATION ( #161, #66, #71 ) ;
#57 = PERSON_AND_ORGANIZATION ( #99, #45 ) ;
#58 = CIRCLE ( 'NONE', #48, 75.00000000000001400 ) ;
#59 = AXIS2_PLACEMENT_3D ( 'NONE', #110, #121, #137 ) ;
#60 = EDGE_CURVE ( 'NONE', #115, #139, #152, .T. ) ;
#61 = CC_DESIGN_PERSON_AND_ORGANIZATION_ASSIGNMENT ( #145, #94, ( #54 ) ) ;
#62 = CIRCLE ( 'NONE', #106, 75.00000000000001400 ) ;
#63 = SHAPE_DEFINITION_REPRESENTATION ( #128, #2 ) ;
#64 = CARTESIAN_POINT ( 'NONE',  ( 0.0000000000000000000, 0.0000000000000000000, -3.250000000000000000 ) ) ;
#65 = DIRECTION ( 'NONE',  ( 1.000000000000000000, 0.0000000000000000000, -0.0000000000000000000 ) ) ;
#66 = APPROVAL ( #10, 'UNSPECIFIED' ) ;
#67 =( NAMED_UNIT ( * ) PLANE_ANGLE_UNIT ( ) SI_UNIT ( $, .RADIAN. ) );
#68 = CARTESIAN_POINT ( 'NONE',  ( 75.00000000000001400, 9.184850993605148700E-015, 3.250000000000000000 ) ) ;
#69 = DIRECTION ( 'NONE',  ( 0.0000000000000000000, 0.0000000000000000000, 1.000000000000000000 ) ) ;
#70 = CALENDAR_DATE ( 2017, 1, 3 ) ;
#71 = APPROVAL_ROLE ( '' ) ;
#72 = CC_DESIGN_APPROVAL ( #25, ( #34 ) ) ;
#73 = CLOSED_SHELL ( 'NONE', ( #118, #32, #86, #169 ) ) ;
#74 = CC_DESIGN_DATE_AND_TIME_ASSIGNMENT ( #80, #107, ( #54 ) ) ;
#75 = PERSON_AND_ORGANIZATION ( #99, #45 ) ;
#76 = CARTESIAN_POINT ( 'NONE',  ( 0.0000000000000000000, 0.0000000000000000000, 3.250000000000000000 ) ) ;
#77 = COORDINATED_UNIVERSAL_TIME_OFFSET ( 5, 0, .BEHIND. ) ;
#78 = APPROVAL ( #142, 'UNSPECIFIED' ) ;
#79 = APPLICATION_PROTOCOL_DEFINITION ( 'international standard', 'config_control_design', 1994, #156 ) ;
#80 = DATE_AND_TIME ( #1, #159 ) ;
#81 = VERTEX_POINT ( 'NONE', #3 ) ;
#82 = CALENDAR_DATE ( 2017, 1, 3 ) ;
#83 = FACE_OUTER_BOUND ( 'NONE', #96, .T. ) ;
#84 = AXIS2_PLACEMENT_3D ( 'NONE', #16, #19, #53 ) ;
#85 = PRODUCT ( 'Web Model 43896_43896', 'Web Model 43896_43896', '', ( #155 ) ) ;
#86 = ADVANCED_FACE ( 'NONE', ( #98 ), #6, .T. ) ;
#87 = PERSON_AND_ORGANIZATION ( #99, #45 ) ;
#88 = EDGE_CURVE ( 'NONE', #81, #139, #146, .T. ) ;
#89 = CC_DESIGN_APPROVAL ( #78, ( #54 ) ) ;
#90 = ORIENTED_EDGE ( 'NONE', *, *, #138, .F. ) ;
#91 = CARTESIAN_POINT ( 'NONE',  ( 75.00000000000001400, 9.184850993605148700E-015, 3.250000000000000000 ) ) ;
#92 =( NAMED_UNIT ( * ) SI_UNIT ( $, .STERADIAN. ) SOLID_ANGLE_UNIT ( ) );
#93 = PERSON_AND_ORGANIZATION_ROLE ( 'creator' ) ;
#94 = PERSON_AND_ORGANIZATION_ROLE ( 'classification_officer' ) ;
#95 = EDGE_LOOP ( 'NONE', ( #173, #47 ) ) ;
#96 = EDGE_LOOP ( 'NONE', ( #157, #55 ) ) ;
#97 = CC_DESIGN_SECURITY_CLASSIFICATION ( #54, ( #100 ) ) ;
#98 = FACE_OUTER_BOUND ( 'NONE', #95, .T. ) ;
#99 = PERSON ( 'UNSPECIFIED', 'UNSPECIFIED', 'UNSPECIFIED', ('UNSPECIFIED'), ('UNSPECIFIED'), ('UNSPECIFIED') ) ;
#100 = PRODUCT_DEFINITION_FORMATION_WITH_SPECIFIED_SOURCE ( 'ANY', '', #85, .NOT_KNOWN. ) ;
#101 = ORIENTED_EDGE ( 'NONE', *, *, #27, .F. ) ;
#102 = PERSON_AND_ORGANIZATION ( #99, #45 ) ;
#103 = MANIFOLD_SOLID_BREP ( 'Boss-Extrude1', #73 ) ;
#104 = CARTESIAN_POINT ( 'NONE',  ( -75.00000000000001400, 0.0000000000000000000, 3.250000000000000000 ) ) ;
#105 = CARTESIAN_POINT ( 'NONE',  ( 0.0000000000000000000, 0.0000000000000000000, -3.250000000000000000 ) ) ;
#106 = AXIS2_PLACEMENT_3D ( 'NONE', #76, #134, #49 ) ;
#107 = DATE_TIME_ROLE ( 'classification_date' ) ;
#108 = EDGE_LOOP ( 'NONE', ( #119, #13, #29, #21 ) ) ;
#109 = LOCAL_TIME ( 16, 17, 55.00000000000000000, #77 ) ;
#110 = CARTESIAN_POINT ( 'NONE',  ( 0.0000000000000000000, 0.0000000000000000000, 3.250000000000000000 ) ) ;
#111 = CYLINDRICAL_SURFACE ( 'NONE', #148, 75.00000000000001400 ) ;
#112 = PRODUCT_RELATED_PRODUCT_CATEGORY ( 'detail', '', ( #85 ) ) ;
#113 = APPROVAL_PERSON_ORGANIZATION ( #57, #25, #42 ) ;
#114 = VECTOR ( 'NONE', #15, 1000.000000000000000 ) ;
#115 = VERTEX_POINT ( 'NONE', #123 ) ;
#116 = CC_DESIGN_APPROVAL ( #66, ( #100 ) ) ;
#117 = DESIGN_CONTEXT ( 'detailed design', #156, 'design' ) ;
#118 = ADVANCED_FACE ( 'NONE', ( #172 ), #135, .T. ) ;
#119 = ORIENTED_EDGE ( 'NONE', *, *, #44, .F. ) ;
#120 = APPLICATION_CONTEXT ( 'configuration controlled 3d designs of mechanical parts and assemblies' ) ;
#121 = DIRECTION ( 'NONE',  ( 0.0000000000000000000, 0.0000000000000000000, 1.000000000000000000 ) ) ;
#122 = PERSON_AND_ORGANIZATION_ROLE ( 'creator' ) ;
#123 = CARTESIAN_POINT ( 'NONE',  ( 75.00000000000001400, 9.184850993605148700E-015, -3.250000000000000000 ) ) ;
#124 = APPROVAL_STATUS ( 'not_yet_approved' ) ;
#125 = EDGE_LOOP ( 'NONE', ( #101, #90, #174, #35 ) ) ;
#126 = DATE_AND_TIME ( #82, #109 ) ;
#127 = CIRCLE ( 'NONE', #84, 75.00000000000001400 ) ;
#128 = PRODUCT_DEFINITION_SHAPE ( 'NONE', 'NONE',  #34 ) ;
#129 = AXIS2_PLACEMENT_3D ( 'NONE', #4, #69, #65 ) ;
#130 = VERTEX_POINT ( 'NONE', #91 ) ;
#131 = APPROVAL_DATE_TIME ( #126, #25 ) ;
#132 = APPROVAL_PERSON_ORGANIZATION ( #102, #78, #170 ) ;
#133 = LOCAL_TIME ( 16, 17, 55.00000000000000000, #140 ) ;
#134 = DIRECTION ( 'NONE',  ( 0.0000000000000000000, 0.0000000000000000000, 1.000000000000000000 ) ) ;
#135 = CYLINDRICAL_SURFACE ( 'NONE', #158, 75.00000000000001400 ) ;
#136 = CC_DESIGN_DATE_AND_TIME_ASSIGNMENT ( #175, #167, ( #34 ) ) ;
#137 = DIRECTION ( 'NONE',  ( 1.000000000000000000, 0.0000000000000000000, -0.0000000000000000000 ) ) ;
#138 = EDGE_CURVE ( 'NONE', #81, #130, #127, .T. ) ;
#139 = VERTEX_POINT ( 'NONE', #41 ) ;
#140 = COORDINATED_UNIVERSAL_TIME_OFFSET ( 5, 0, .BEHIND. ) ;
#141 = COORDINATED_UNIVERSAL_TIME_OFFSET ( 5, 0, .BEHIND. ) ;
#142 = APPROVAL_STATUS ( 'not_yet_approved' ) ;
#143 = VECTOR ( 'NONE', #40, 1000.000000000000000 ) ;
#144 = PERSON_AND_ORGANIZATION ( #99, #45 ) ;
#145 = PERSON_AND_ORGANIZATION ( #99, #45 ) ;
#146 = LINE ( 'NONE', #104, #114 ) ;
#147 = CC_DESIGN_PERSON_AND_ORGANIZATION_ASSIGNMENT ( #144, #122, ( #34 ) ) ;
#148 = AXIS2_PLACEMENT_3D ( 'NONE', #165, #24, #26 ) ;
#149 = EDGE_CURVE ( 'NONE', #139, #115, #58, .T. ) ;
#150 = CALENDAR_DATE ( 2017, 1, 3 ) ;
#151 = CALENDAR_DATE ( 2017, 1, 3 ) ;
#152 = CIRCLE ( 'NONE', #51, 75.00000000000001400 ) ;
#153 = PLANE ( 'NONE',  #129 ) ;
#154 = DIRECTION ( 'NONE',  ( -1.000000000000000000, 0.0000000000000000000, 0.0000000000000000000 ) ) ;
#155 = MECHANICAL_CONTEXT ( 'NONE', #120, 'mechanical' ) ;
#156 = APPLICATION_CONTEXT ( 'configuration controlled 3d designs of mechanical parts and assemblies' ) ;
#157 = ORIENTED_EDGE ( 'NONE', *, *, #149, .F. ) ;
#158 = AXIS2_PLACEMENT_3D ( 'NONE', #166, #162, #154 ) ;
#159 = LOCAL_TIME ( 16, 17, 55.00000000000000000, #141 ) ;
#160 = DATE_AND_TIME ( #151, #164 ) ;
#161 = PERSON_AND_ORGANIZATION ( #99, #45 ) ;
#162 = DIRECTION ( 'NONE',  ( -0.0000000000000000000, -0.0000000000000000000, -1.000000000000000000 ) ) ;
#163 = DIRECTION ( 'NONE',  ( 1.000000000000000000, 0.0000000000000000000, 0.0000000000000000000 ) ) ;
#164 = LOCAL_TIME ( 16, 17, 55.00000000000000000, #52 ) ;
#165 = CARTESIAN_POINT ( 'NONE',  ( 0.0000000000000000000, 0.0000000000000000000, 3.250000000000000000 ) ) ;
#166 = CARTESIAN_POINT ( 'NONE',  ( 0.0000000000000000000, 0.0000000000000000000, 3.250000000000000000 ) ) ;
#167 = DATE_TIME_ROLE ( 'creation_date' ) ;
#168 = DIRECTION ( 'NONE',  ( 1.000000000000000000, 0.0000000000000000000, 0.0000000000000000000 ) ) ;
#169 = ADVANCED_FACE ( 'NONE', ( #83 ), #153, .F. ) ;
#170 = APPROVAL_ROLE ( '' ) ;
#171 = FACE_OUTER_BOUND ( 'NONE', #125, .T. ) ;
#172 = FACE_OUTER_BOUND ( 'NONE', #108, .T. ) ;
#173 = ORIENTED_EDGE ( 'NONE', *, *, #138, .T. ) ;
#174 = ORIENTED_EDGE ( 'NONE', *, *, #88, .T. ) ;
#175 = DATE_AND_TIME ( #150, #133 ) ;
ENDSEC;
END-ISO-10303-21;
