ISO-10303-21;
HEADER;
FILE_DESCRIPTION (( 'STEP AP203' ),
    '1' );
FILE_NAME ('Web Model 64397MX_15778.step',
    '2020-10-19T15:37:54',
    ( '' ),
    ( '' ),
    'SwSTEP 2.0',
    'SolidWorks 2018',
    '' );
FILE_SCHEMA (( 'CONFIG_CONTROL_DESIGN' ));
ENDSEC;

DATA;
#1 = PERSON_AND_ORGANIZATION_ROLE ( 'classification_officer' ) ;
#2 = CC_DESIGN_SECURITY_CLASSIFICATION ( #46, ( #81 ) ) ;
#3 = PERSON_AND_ORGANIZATION_ROLE ( 'design_supplier' ) ;
#4 = EDGE_CURVE ( 'NONE', #110, #131, #218, .T. ) ;
#5 = AXIS2_PLACEMENT_3D ( 'NONE', #135, #199, #26 ) ;
#6 = EDGE_CURVE ( 'NONE', #144, #22, #107, .T. ) ;
#7 = ORIENTED_EDGE ( 'NONE', *, *, #91, .F. ) ;
#8 = VECTOR ( 'NONE', #165, 1000.000000000000000 ) ;
#9 = COORDINATED_UNIVERSAL_TIME_OFFSET ( 5, 0, .BEHIND. ) ;
#10 = CARTESIAN_POINT ( 'NONE',  ( 6.349999999999998757, -6.349999999999998757, 3.000000000000000000 ) ) ;
#11 = CLOSED_SHELL ( 'NONE', ( #166, #70, #170, #237, #233, #56 ) ) ;
#12 = PLANE ( 'NONE',  #143 ) ;
#13 = CARTESIAN_POINT ( 'NONE',  ( 6.349999999999998757, 6.350000000000000533, -3.000000000000000000 ) ) ;
#14 = DIRECTION ( 'NONE',  ( -0.0000000000000000000, -0.0000000000000000000, -1.000000000000000000 ) ) ;
#15 = LOCAL_TIME ( 11, 37, 54.00000000000000000, #25 ) ;
#16 = CARTESIAN_POINT ( 'NONE',  ( 6.349999999999998757, -6.349999999999998757, 3.000000000000000000 ) ) ;
#17 = DIRECTION ( 'NONE',  ( -1.000000000000000000, 0.0000000000000000000, 0.0000000000000000000 ) ) ;
#18 = FACE_OUTER_BOUND ( 'NONE', #221, .T. ) ;
#19 = EDGE_CURVE ( 'NONE', #184, #176, #124, .T. ) ;
#20 = DIRECTION ( 'NONE',  ( -0.0000000000000000000, -0.0000000000000000000, -1.000000000000000000 ) ) ;
#21 = PRODUCT_DEFINITION ( 'UNKNOWN', '', #81, #152 ) ;
#22 = VERTEX_POINT ( 'NONE', #127 ) ;
#23 = EDGE_CURVE ( 'NONE', #22, #176, #80, .T. ) ;
#24 = APPROVAL_ROLE ( '' ) ;
#25 = COORDINATED_UNIVERSAL_TIME_OFFSET ( 5, 0, .BEHIND. ) ;
#26 = DIRECTION ( 'NONE',  ( 1.000000000000000000, 0.0000000000000000000, 0.0000000000000000000 ) ) ;
#27 = FACE_OUTER_BOUND ( 'NONE', #28, .T. ) ;
#28 = EDGE_LOOP ( 'NONE', ( #118, #175, #59, #78 ) ) ;
#29 = LOCAL_TIME ( 11, 37, 54.00000000000000000, #64 ) ;
#30 = ORIENTED_EDGE ( 'NONE', *, *, #153, .T. ) ;
#31 = DIRECTION ( 'NONE',  ( 1.000000000000000000, 0.0000000000000000000, -0.0000000000000000000 ) ) ;
#32 = EDGE_CURVE ( 'NONE', #36, #214, #173, .T. ) ;
#33 = DIRECTION ( 'NONE',  ( -1.000000000000000000, -1.365923996832131609E-16, 0.0000000000000000000 ) ) ;
#34 = APPROVAL ( #96, 'UNSPECIFIED' ) ;
#35 = LINE ( 'NONE', #209, #8 ) ;
#36 = VERTEX_POINT ( 'NONE', #66 ) ;
#37 = CARTESIAN_POINT ( 'NONE',  ( 6.349999999999998757, -6.349999999999998757, 3.000000000000000000 ) ) ;
#38 = AXIS2_PLACEMENT_3D ( 'NONE', #37, #17, #210 ) ;
#39 = DIRECTION ( 'NONE',  ( 1.000000000000000000, 0.0000000000000000000, -0.0000000000000000000 ) ) ;
#40 = EDGE_LOOP ( 'NONE', ( #101, #157, #174, #30 ) ) ;
#41 = DATE_TIME_ROLE ( 'creation_date' ) ;
#42 = DATE_AND_TIME ( #104, #15 ) ;
#43 = PERSON_AND_ORGANIZATION ( #207, #160 ) ;
#44 = APPLICATION_CONTEXT ( 'configuration controlled 3d designs of mechanical parts and assemblies' ) ;
#45 = VECTOR ( 'NONE', #134, 1000.000000000000000 ) ;
#46 = SECURITY_CLASSIFICATION ( '', '', #154 ) ;
#47 = APPROVAL_PERSON_ORGANIZATION ( #43, #34, #24 ) ;
#48 = VECTOR ( 'NONE', #33, 1000.000000000000000 ) ;
#49 = APPROVAL_DATE_TIME ( #105, #108 ) ;
#50 = CARTESIAN_POINT ( 'NONE',  ( 6.349999999999998757, -6.349999999999998757, 3.000000000000000000 ) ) ;
#51 = CC_DESIGN_APPROVAL ( #119, ( #46 ) ) ;
#52 = ORIENTED_EDGE ( 'NONE', *, *, #4, .T. ) ;
#53 = CARTESIAN_POINT ( 'NONE',  ( -6.350000000000000533, -6.350000000000000533, -3.000000000000000000 ) ) ;
#54 = ORIENTED_EDGE ( 'NONE', *, *, #158, .T. ) ;
#55 = CARTESIAN_POINT ( 'NONE',  ( 0.0000000000000000000, 0.0000000000000000000, 3.000000000000000000 ) ) ;
#56 = ADVANCED_FACE ( 'NONE', ( #18 ), #148, .F. ) ;
#57 = VECTOR ( 'NONE', #130, 1000.000000000000000 ) ;
#58 = CC_DESIGN_PERSON_AND_ORGANIZATION_ASSIGNMENT ( #208, #198, ( #21 ) ) ;
#59 = ORIENTED_EDGE ( 'NONE', *, *, #168, .F. ) ;
#60 = LINE ( 'NONE', #163, #220 ) ;
#61 = APPROVAL_DATE_TIME ( #42, #119 ) ;
#62 = FACE_OUTER_BOUND ( 'NONE', #72, .T. ) ;
#63 = ORIENTED_EDGE ( 'NONE', *, *, #32, .F. ) ;
#64 = COORDINATED_UNIVERSAL_TIME_OFFSET ( 5, 0, .BEHIND. ) ;
#65 = DIRECTION ( 'NONE',  ( 0.0000000000000000000, 1.000000000000000000, 0.0000000000000000000 ) ) ;
#66 = CARTESIAN_POINT ( 'NONE',  ( 6.349999999999998757, 6.350000000000000533, 3.000000000000000000 ) ) ;
#67 = PLANE ( 'NONE',  #38 ) ;
#68 = DIRECTION ( 'NONE',  ( 0.0000000000000000000, -0.0000000000000000000, 1.000000000000000000 ) ) ;
#69 = CARTESIAN_POINT ( 'NONE',  ( -6.350000000000000533, -6.350000000000000533, 3.000000000000000000 ) ) ;
#70 = ADVANCED_FACE ( 'NONE', ( #27 ), #12, .F. ) ;
#71 = VECTOR ( 'NONE', #14, 1000.000000000000000 ) ;
#72 = EDGE_LOOP ( 'NONE', ( #54, #159, #7, #52 ) ) ;
#73 = CARTESIAN_POINT ( 'NONE',  ( -6.350000000000000533, -6.350000000000000533, 3.000000000000000000 ) ) ;
#74 = CC_DESIGN_APPROVAL ( #34, ( #21 ) ) ;
#75 = DATE_TIME_ROLE ( 'classification_date' ) ;
#76 = CALENDAR_DATE ( 2020, 19, 10 ) ;
#77 = ORIENTED_EDGE ( 'NONE', *, *, #32, .T. ) ;
#78 = ORIENTED_EDGE ( 'NONE', *, *, #19, .T. ) ;
#79 = LOCAL_TIME ( 11, 37, 54.00000000000000000, #142 ) ;
#80 = LINE ( 'NONE', #227, #231 ) ;
#81 = PRODUCT_DEFINITION_FORMATION_WITH_SPECIFIED_SOURCE ( 'ANY', '', #194, .NOT_KNOWN. ) ;
#82 = LOCAL_TIME ( 11, 37, 54.00000000000000000, #9 ) ;
#83 = PERSON_AND_ORGANIZATION ( #207, #160 ) ;
#84 = DIRECTION ( 'NONE',  ( -0.0000000000000000000, -1.000000000000000000, -0.0000000000000000000 ) ) ;
#85 = ORIENTED_EDGE ( 'NONE', *, *, #158, .F. ) ;
#86 = CARTESIAN_POINT ( 'NONE',  ( 6.349999999999998757, 6.350000000000000533, 3.000000000000000000 ) ) ;
#87 = APPROVAL_PERSON_ORGANIZATION ( #167, #119, #169 ) ;
#88 = DIRECTION ( 'NONE',  ( 1.000000000000000000, 1.365923996832131609E-16, 0.0000000000000000000 ) ) ;
#89 = DIRECTION ( 'NONE',  ( 1.365923996832131609E-16, -1.000000000000000000, 0.0000000000000000000 ) ) ;
#90 = DIRECTION ( 'NONE',  ( 1.000000000000000000, 1.365923996832131609E-16, -0.0000000000000000000 ) ) ;
#91 = EDGE_CURVE ( 'NONE', #110, #36, #102, .T. ) ;
#92 = APPLICATION_PROTOCOL_DEFINITION ( 'international standard', 'config_control_design', 1994, #232 ) ;
#93 = ORIENTED_EDGE ( 'NONE', *, *, #153, .F. ) ;
#94 = PERSON_AND_ORGANIZATION_ROLE ( 'creator' ) ;
#95 = CC_DESIGN_DATE_AND_TIME_ASSIGNMENT ( #172, #41, ( #21 ) ) ;
#96 = APPROVAL_STATUS ( 'not_yet_approved' ) ;
#97 = VECTOR ( 'NONE', #145, 1000.000000000000000 ) ;
#98 = FACE_OUTER_BOUND ( 'NONE', #203, .T. ) ;
#99 = CALENDAR_DATE ( 2020, 19, 10 ) ;
#100 =( GEOMETRIC_REPRESENTATION_CONTEXT ( 3 ) GLOBAL_UNCERTAINTY_ASSIGNED_CONTEXT ( ( #114 ) ) GLOBAL_UNIT_ASSIGNED_CONTEXT ( ( #196, #215, #109 ) ) REPRESENTATION_CONTEXT ( 'NONE', 'WORKASPACE' ) );
#101 = ORIENTED_EDGE ( 'NONE', *, *, #23, .T. ) ;
#102 = LINE ( 'NONE', #50, #140 ) ;
#103 = CC_DESIGN_PERSON_AND_ORGANIZATION_ASSIGNMENT ( #147, #156, ( #194 ) ) ;
#104 = CALENDAR_DATE ( 2020, 19, 10 ) ;
#105 = DATE_AND_TIME ( #99, #137 ) ;
#106 = CARTESIAN_POINT ( 'NONE',  ( 0.0000000000000000000, 0.0000000000000000000, -3.000000000000000000 ) ) ;
#107 = LINE ( 'NONE', #178, #48 ) ;
#108 = APPROVAL ( #200, 'UNSPECIFIED' ) ;
#109 =( NAMED_UNIT ( * ) SI_UNIT ( $, .STERADIAN. ) SOLID_ANGLE_UNIT ( ) );
#110 = VERTEX_POINT ( 'NONE', #230 ) ;
#111 = FACE_OUTER_BOUND ( 'NONE', #122, .T. ) ;
#112 = PLANE ( 'NONE',  #226 ) ;
#113 = LINE ( 'NONE', #236, #223 ) ;
#114 = UNCERTAINTY_MEASURE_WITH_UNIT (LENGTH_MEASURE( 1.000000000000000082E-05 ), #196, 'distance_accuracy_value', 'NONE');
#115 = MECHANICAL_CONTEXT ( 'NONE', #232, 'mechanical' ) ;
#116 = APPROVAL_PERSON_ORGANIZATION ( #202, #108, #117 ) ;
#117 = APPROVAL_ROLE ( '' ) ;
#118 = ORIENTED_EDGE ( 'NONE', *, *, #229, .T. ) ;
#119 = APPROVAL ( #216, 'UNSPECIFIED' ) ;
#120 = AXIS2_PLACEMENT_3D ( 'NONE', #106, #125, #31 ) ;
#121 = PRODUCT_DEFINITION_SHAPE ( 'NONE', 'NONE',  #21 ) ;
#122 = EDGE_LOOP ( 'NONE', ( #171, #93, #63, #189 ) ) ;
#123 = LINE ( 'NONE', #234, #57 ) ;
#124 = LINE ( 'NONE', #225, #71 ) ;
#125 = DIRECTION ( 'NONE',  ( 0.0000000000000000000, -0.0000000000000000000, 1.000000000000000000 ) ) ;
#126 = CARTESIAN_POINT ( 'NONE',  ( 6.349999999999998757, -6.349999999999998757, 3.000000000000000000 ) ) ;
#127 = CARTESIAN_POINT ( 'NONE',  ( -6.350000000000000533, 6.349999999999998757, -3.000000000000000000 ) ) ;
#128 = APPROVAL_DATE_TIME ( #183, #34 ) ;
#129 = CC_DESIGN_PERSON_AND_ORGANIZATION_ASSIGNMENT ( #222, #1, ( #46 ) ) ;
#130 = DIRECTION ( 'NONE',  ( -0.0000000000000000000, -1.000000000000000000, -0.0000000000000000000 ) ) ;
#131 = VERTEX_POINT ( 'NONE', #205 ) ;
#132 = CC_DESIGN_APPROVAL ( #108, ( #81 ) ) ;
#133 = DIRECTION ( 'NONE',  ( 1.000000000000000000, 0.0000000000000000000, 0.0000000000000000000 ) ) ;
#134 = DIRECTION ( 'NONE',  ( 0.0000000000000000000, 1.000000000000000000, 0.0000000000000000000 ) ) ;
#135 = CARTESIAN_POINT ( 'NONE',  ( 0.0000000000000000000, 0.0000000000000000000, 0.0000000000000000000 ) ) ;
#136 = ORIENTED_EDGE ( 'NONE', *, *, #179, .T. ) ;
#137 = LOCAL_TIME ( 11, 37, 54.00000000000000000, #201 ) ;
#138 = LINE ( 'NONE', #16, #204 ) ;
#139 = LINE ( 'NONE', #185, #45 ) ;
#140 = VECTOR ( 'NONE', #65, 1000.000000000000000 ) ;
#141 = DIRECTION ( 'NONE',  ( -1.000000000000000000, -1.365923996832131609E-16, 0.0000000000000000000 ) ) ;
#142 = COORDINATED_UNIVERSAL_TIME_OFFSET ( 5, 0, .BEHIND. ) ;
#143 = AXIS2_PLACEMENT_3D ( 'NONE', #10, #177, #141 ) ;
#144 = VERTEX_POINT ( 'NONE', #13 ) ;
#145 = DIRECTION ( 'NONE',  ( -1.000000000000000000, -1.365923996832131609E-16, 0.0000000000000000000 ) ) ;
#146 = DATE_AND_TIME ( #76, #29 ) ;
#147 = PERSON_AND_ORGANIZATION ( #207, #160 ) ;
#148 = PLANE ( 'NONE',  #120 ) ;
#149 = DIRECTION ( 'NONE',  ( 0.0000000000000000000, 0.0000000000000000000, -1.000000000000000000 ) ) ;
#150 = ADVANCED_BREP_SHAPE_REPRESENTATION ( 'Web Model 64397MX_15778', ( #155, #5 ), #100 ) ;
#151 = APPLICATION_PROTOCOL_DEFINITION ( 'international standard', 'config_control_design', 1994, #44 ) ;
#152 = DESIGN_CONTEXT ( 'detailed design', #44, 'design' ) ;
#153 = EDGE_CURVE ( 'NONE', #214, #22, #113, .T. ) ;
#154 = SECURITY_CLASSIFICATION_LEVEL ( 'unclassified' ) ;
#155 = MANIFOLD_SOLID_BREP ( 'Boss-Extrude1', #11 ) ;
#156 = PERSON_AND_ORGANIZATION_ROLE ( 'design_owner' ) ;
#157 = ORIENTED_EDGE ( 'NONE', *, *, #19, .F. ) ;
#158 = EDGE_CURVE ( 'NONE', #131, #144, #139, .T. ) ;
#159 = ORIENTED_EDGE ( 'NONE', *, *, #224, .F. ) ;
#160 = ORGANIZATION ( 'UNSPECIFIED', 'UNSPECIFIED', '' ) ;
#161 = CARTESIAN_POINT ( 'NONE',  ( -6.350000000000000533, 6.349999999999998757, 3.000000000000000000 ) ) ;
#162 = CALENDAR_DATE ( 2020, 19, 10 ) ;
#163 = CARTESIAN_POINT ( 'NONE',  ( 6.349999999999998757, -6.349999999999998757, -3.000000000000000000 ) ) ;
#164 = FACE_OUTER_BOUND ( 'NONE', #40, .T. ) ;
#165 = DIRECTION ( 'NONE',  ( -0.0000000000000000000, -0.0000000000000000000, -1.000000000000000000 ) ) ;
#166 = ADVANCED_FACE ( 'NONE', ( #164 ), #213, .F. ) ;
#167 = PERSON_AND_ORGANIZATION ( #207, #160 ) ;
#168 = EDGE_CURVE ( 'NONE', #184, #110, #138, .T. ) ;
#169 = APPROVAL_ROLE ( '' ) ;
#170 = ADVANCED_FACE ( 'NONE', ( #62 ), #67, .F. ) ;
#171 = ORIENTED_EDGE ( 'NONE', *, *, #6, .T. ) ;
#172 = DATE_AND_TIME ( #162, #79 ) ;
#173 = LINE ( 'NONE', #86, #97 ) ;
#174 = ORIENTED_EDGE ( 'NONE', *, *, #179, .F. ) ;
#175 = ORIENTED_EDGE ( 'NONE', *, *, #4, .F. ) ;
#176 = VERTEX_POINT ( 'NONE', #53 ) ;
#177 = DIRECTION ( 'NONE',  ( -1.365923996832131609E-16, 1.000000000000000000, 0.0000000000000000000 ) ) ;
#178 = CARTESIAN_POINT ( 'NONE',  ( 6.349999999999998757, 6.350000000000000533, -3.000000000000000000 ) ) ;
#179 = EDGE_CURVE ( 'NONE', #214, #184, #123, .T. ) ;
#180 = ORIENTED_EDGE ( 'NONE', *, *, #6, .F. ) ;
#181 = PLANE ( 'NONE',  #235 ) ;
#182 = CC_DESIGN_PERSON_AND_ORGANIZATION_ASSIGNMENT ( #83, #3, ( #81 ) ) ;
#183 = DATE_AND_TIME ( #228, #82 ) ;
#184 = VERTEX_POINT ( 'NONE', #73 ) ;
#185 = CARTESIAN_POINT ( 'NONE',  ( 6.349999999999998757, -6.349999999999998757, -3.000000000000000000 ) ) ;
#186 = PERSON_AND_ORGANIZATION ( #207, #160 ) ;
#187 = ORIENTED_EDGE ( 'NONE', *, *, #168, .T. ) ;
#188 = VECTOR ( 'NONE', #193, 1000.000000000000000 ) ;
#189 = ORIENTED_EDGE ( 'NONE', *, *, #224, .T. ) ;
#190 = AXIS2_PLACEMENT_3D ( 'NONE', #69, #133, #149 ) ;
#191 = SHAPE_DEFINITION_REPRESENTATION ( #121, #150 ) ;
#192 = CC_DESIGN_PERSON_AND_ORGANIZATION_ASSIGNMENT ( #186, #94, ( #81 ) ) ;
#193 = DIRECTION ( 'NONE',  ( -0.0000000000000000000, -0.0000000000000000000, -1.000000000000000000 ) ) ;
#194 = PRODUCT ( 'Web Model 64397MX_15778', 'Web Model 64397MX_15778', '', ( #115 ) ) ;
#195 = ORIENTED_EDGE ( 'NONE', *, *, #91, .T. ) ;
#196 =( LENGTH_UNIT ( ) NAMED_UNIT ( * ) SI_UNIT ( .MILLI., .METRE. ) );
#197 = CARTESIAN_POINT ( 'NONE',  ( 6.349999999999998757, 6.350000000000000533, 3.000000000000000000 ) ) ;
#198 = PERSON_AND_ORGANIZATION_ROLE ( 'creator' ) ;
#199 = DIRECTION ( 'NONE',  ( 0.0000000000000000000, 0.0000000000000000000, 1.000000000000000000 ) ) ;
#200 = APPROVAL_STATUS ( 'not_yet_approved' ) ;
#201 = COORDINATED_UNIVERSAL_TIME_OFFSET ( 5, 0, .BEHIND. ) ;
#202 = PERSON_AND_ORGANIZATION ( #207, #160 ) ;
#203 = EDGE_LOOP ( 'NONE', ( #136, #187, #195, #77 ) ) ;
#204 = VECTOR ( 'NONE', #211, 1000.000000000000000 ) ;
#205 = CARTESIAN_POINT ( 'NONE',  ( 6.349999999999998757, -6.349999999999998757, -3.000000000000000000 ) ) ;
#206 = PRODUCT_RELATED_PRODUCT_CATEGORY ( 'detail', '', ( #194 ) ) ;
#207 = PERSON ( 'UNSPECIFIED', 'UNSPECIFIED', 'UNSPECIFIED', ('UNSPECIFIED'), ('UNSPECIFIED'), ('UNSPECIFIED') ) ;
#208 = PERSON_AND_ORGANIZATION ( #207, #160 ) ;
#209 = CARTESIAN_POINT ( 'NONE',  ( 6.349999999999998757, 6.350000000000000533, 3.000000000000000000 ) ) ;
#210 = DIRECTION ( 'NONE',  ( 0.0000000000000000000, 0.0000000000000000000, 1.000000000000000000 ) ) ;
#211 = DIRECTION ( 'NONE',  ( 1.000000000000000000, 1.365923996832131609E-16, -0.0000000000000000000 ) ) ;
#212 = ORIENTED_EDGE ( 'NONE', *, *, #229, .F. ) ;
#213 = PLANE ( 'NONE',  #190 ) ;
#214 = VERTEX_POINT ( 'NONE', #161 ) ;
#215 =( NAMED_UNIT ( * ) PLANE_ANGLE_UNIT ( ) SI_UNIT ( $, .RADIAN. ) );
#216 = APPROVAL_STATUS ( 'not_yet_approved' ) ;
#217 = CC_DESIGN_DATE_AND_TIME_ASSIGNMENT ( #146, #75, ( #46 ) ) ;
#218 = LINE ( 'NONE', #126, #188 ) ;
#219 = ORIENTED_EDGE ( 'NONE', *, *, #23, .F. ) ;
#220 = VECTOR ( 'NONE', #90, 1000.000000000000000 ) ;
#221 = EDGE_LOOP ( 'NONE', ( #219, #180, #85, #212 ) ) ;
#222 = PERSON_AND_ORGANIZATION ( #207, #160 ) ;
#223 = VECTOR ( 'NONE', #20, 1000.000000000000000 ) ;
#224 = EDGE_CURVE ( 'NONE', #36, #144, #35, .T. ) ;
#225 = CARTESIAN_POINT ( 'NONE',  ( -6.350000000000000533, -6.350000000000000533, 3.000000000000000000 ) ) ;
#226 = AXIS2_PLACEMENT_3D ( 'NONE', #55, #68, #39 ) ;
#227 = CARTESIAN_POINT ( 'NONE',  ( -6.350000000000000533, -6.350000000000000533, -3.000000000000000000 ) ) ;
#228 = CALENDAR_DATE ( 2020, 19, 10 ) ;
#229 = EDGE_CURVE ( 'NONE', #176, #131, #60, .T. ) ;
#230 = CARTESIAN_POINT ( 'NONE',  ( 6.349999999999998757, -6.349999999999998757, 3.000000000000000000 ) ) ;
#231 = VECTOR ( 'NONE', #84, 1000.000000000000000 ) ;
#232 = APPLICATION_CONTEXT ( 'configuration controlled 3d designs of mechanical parts and assemblies' ) ;
#233 = ADVANCED_FACE ( 'NONE', ( #98 ), #112, .T. ) ;
#234 = CARTESIAN_POINT ( 'NONE',  ( -6.350000000000000533, -6.350000000000000533, 3.000000000000000000 ) ) ;
#235 = AXIS2_PLACEMENT_3D ( 'NONE', #197, #89, #88 ) ;
#236 = CARTESIAN_POINT ( 'NONE',  ( -6.350000000000000533, 6.349999999999998757, 3.000000000000000000 ) ) ;
#237 = ADVANCED_FACE ( 'NONE', ( #111 ), #181, .F. ) ;
ENDSEC;
END-ISO-10303-21;
