ISO-10303-21;
HEADER;
FILE_DESCRIPTION (( 'STEP AP203' ),
    '1' );
FILE_NAME ('TTN188101-E0W.STEP',
    '2019-12-16T20:27:06',
    ( '' ),
    ( '' ),
    'SwSTEP 2.0',
    'SolidWorks 2018',
    '' );
FILE_SCHEMA (( 'CONFIG_CONTROL_DESIGN' ));
ENDSEC;

DATA;
#1 = FACE_OUTER_BOUND ( 'NONE', #175, .T. ) ;
#2 = CC_DESIGN_DATE_AND_TIME_ASSIGNMENT ( #98, #250, ( #221 ) ) ;
#3 = APPROVAL_DATE_TIME ( #59, #137 ) ;
#4 = CIRCLE ( 'NONE', #146, 25.39999999999994174 ) ;
#5 = APPROVAL_PERSON_ORGANIZATION ( #70, #124, #131 ) ;
#6 = DIRECTION ( 'NONE',  ( 1.000000000000000000, 0.0000000000000000000, 0.0000000000000000000 ) ) ;
#7 = CARTESIAN_POINT ( 'NONE',  ( 0.0000000000000000000, 0.0000000000000000000, -2.995815726728079387 ) ) ;
#8 = PERSON_AND_ORGANIZATION ( #173, #50 ) ;
#9 = DIRECTION ( 'NONE',  ( -1.000000000000000000, 0.0000000000000000000, -0.0000000000000000000 ) ) ;
#10 = AXIS2_PLACEMENT_3D ( 'NONE', #186, #252, #134 ) ;
#11 = CC_DESIGN_PERSON_AND_ORGANIZATION_ASSIGNMENT ( #263, #204, ( #221 ) ) ;
#12 = DIRECTION ( 'NONE',  ( 0.0000000000000000000, 0.0000000000000000000, -1.000000000000000000 ) ) ;
#13 = VERTEX_POINT ( 'NONE', #35 ) ;
#14 = DIRECTION ( 'NONE',  ( 1.000000000000000000, 0.0000000000000000000, 0.0000000000000000000 ) ) ;
#15 = VERTEX_POINT ( 'NONE', #107 ) ;
#16 = PERSON_AND_ORGANIZATION_ROLE ( 'design_owner' ) ;
#17 = CARTESIAN_POINT ( 'NONE',  ( 25.14999999999998437, 3.095294784844932605E-15, 0.0000000000000000000 ) ) ;
#18 = CARTESIAN_POINT ( 'NONE',  ( 0.0000000000000000000, 0.0000000000000000000, 0.0000000000000000000 ) ) ;
#19 = APPROVAL_ROLE ( '' ) ;
#20 = VECTOR ( 'NONE', #226, 999.9999999999998863 ) ;
#21 = DIRECTION ( 'NONE',  ( 0.0000000000000000000, 0.0000000000000000000, 1.000000000000000000 ) ) ;
#22 = CARTESIAN_POINT ( 'NONE',  ( -25.39999999999997016, 3.110602869834273710E-15, 0.0000000000000000000 ) ) ;
#23 = ORIENTED_EDGE ( 'NONE', *, *, #115, .T. ) ;
#24 = ORIENTED_EDGE ( 'NONE', *, *, #220, .T. ) ;
#25 = SECURITY_CLASSIFICATION ( '', '', #133 ) ;
#26 = APPROVAL_DATE_TIME ( #155, #124 ) ;
#27 = ORIENTED_EDGE ( 'NONE', *, *, #57, .T. ) ;
#28 = AXIS2_PLACEMENT_3D ( 'NONE', #18, #39, #188 ) ;
#29 = CC_DESIGN_APPROVAL ( #137, ( #69 ) ) ;
#30 = COORDINATED_UNIVERSAL_TIME_OFFSET ( 5, 0, .BEHIND. ) ;
#31 = ORIENTED_EDGE ( 'NONE', *, *, #130, .T. ) ;
#32 = FACE_OUTER_BOUND ( 'NONE', #41, .T. ) ;
#33 = APPROVAL_PERSON_ORGANIZATION ( #119, #137, #19 ) ;
#34 = DIRECTION ( 'NONE',  ( -1.000000000000000000, 0.0000000000000000000, 0.0000000000000000000 ) ) ;
#35 = CARTESIAN_POINT ( 'NONE',  ( -25.39999999999997016, 3.110602869834273710E-15, -0.2499999999999898137 ) ) ;
#36 = LINE ( 'NONE', #88, #178 ) ;
#37 = CARTESIAN_POINT ( 'NONE',  ( 0.0000000000000000000, 0.0000000000000000000, 0.0000000000000000000 ) ) ;
#38 = CARTESIAN_POINT ( 'NONE',  ( 0.0000000000000000000, 0.0000000000000000000, 430.0999999999999091 ) ) ;
#39 = DIRECTION ( 'NONE',  ( -0.0000000000000000000, -0.0000000000000000000, 1.000000000000000000 ) ) ;
#40 = APPROVAL_ROLE ( '' ) ;
#41 = EDGE_LOOP ( 'NONE', ( #237, #27, #138, #168 ) ) ;
#42 = AXIS2_PLACEMENT_3D ( 'NONE', #161, #264, #76 ) ;
#43 = COORDINATED_UNIVERSAL_TIME_OFFSET ( 5, 0, .BEHIND. ) ;
#44 = ADVANCED_FACE ( 'NONE', ( #192 ), #215, .T. ) ;
#45 = VECTOR ( 'NONE', #184, 1000.000000000000000 ) ;
#46 = EDGE_CURVE ( 'NONE', #82, #211, #91, .T. ) ;
#47 = ADVANCED_FACE ( 'NONE', ( #154 ), #243, .F. ) ;
#48 = LOCAL_TIME ( 15, 27, 6.000000000000000000, #108 ) ;
#49 = ORIENTED_EDGE ( 'NONE', *, *, #95, .T. ) ;
#50 = ORGANIZATION ( 'UNSPECIFIED', 'UNSPECIFIED', '' ) ;
#51 = UNCERTAINTY_MEASURE_WITH_UNIT (LENGTH_MEASURE( 1.000000000000000082E-05 ), #242, 'distance_accuracy_value', 'NONE');
#52 = EDGE_CURVE ( 'NONE', #169, #13, #162, .T. ) ;
#53 = CC_DESIGN_PERSON_AND_ORGANIZATION_ASSIGNMENT ( #195, #268, ( #25 ) ) ;
#54 = FACE_OUTER_BOUND ( 'NONE', #229, .T. ) ;
#55 = VERTEX_POINT ( 'NONE', #262 ) ;
#56 = ORIENTED_EDGE ( 'NONE', *, *, #163, .T. ) ;
#57 = EDGE_CURVE ( 'NONE', #206, #212, #234, .T. ) ;
#58 = CC_DESIGN_PERSON_AND_ORGANIZATION_ASSIGNMENT ( #72, #132, ( #69 ) ) ;
#59 = DATE_AND_TIME ( #209, #167 ) ;
#60 = CARTESIAN_POINT ( 'NONE',  ( 0.0000000000000000000, 0.0000000000000000000, -2.995815726728079387 ) ) ;
#61 = DIRECTION ( 'NONE',  ( -1.000000000000000000, 0.0000000000000000000, 0.0000000000000000000 ) ) ;
#62 = SPHERICAL_SURFACE ( 'NONE', #141, 433.8399999999999750 ) ;
#63 = APPLICATION_PROTOCOL_DEFINITION ( 'international standard', 'config_control_design', 1994, #165 ) ;
#64 = DIRECTION ( 'NONE',  ( 0.0000000000000000000, 0.0000000000000000000, -1.000000000000000000 ) ) ;
#65 = AXIS2_PLACEMENT_3D ( 'NONE', #149, #244, #147 ) ;
#66 = DIRECTION ( 'NONE',  ( -0.7071067811865425767, 0.0000000000000000000, -0.7071067811865525687 ) ) ;
#67 = VECTOR ( 'NONE', #254, 1000.000000000000000 ) ;
#68 = EDGE_LOOP ( 'NONE', ( #152, #224 ) ) ;
#69 = PRODUCT_DEFINITION_FORMATION_WITH_SPECIFIED_SOURCE ( 'ANY', '', #157, .NOT_KNOWN. ) ;
#70 = PERSON_AND_ORGANIZATION ( #173, #50 ) ;
#71 = ADVANCED_FACE ( 'NONE', ( #32 ), #62, .T. ) ;
#72 = PERSON_AND_ORGANIZATION ( #173, #50 ) ;
#73 = ORIENTED_EDGE ( 'NONE', *, *, #52, .F. ) ;
#74 = PRODUCT_RELATED_PRODUCT_CATEGORY ( 'detail', '', ( #157 ) ) ;
#75 = CIRCLE ( 'NONE', #78, 25.39999999999994174 ) ;
#76 = DIRECTION ( 'NONE',  ( -1.000000000000000000, 0.0000000000000000000, 0.0000000000000000000 ) ) ;
#77 = EDGE_CURVE ( 'NONE', #206, #55, #114, .T. ) ;
#78 = AXIS2_PLACEMENT_3D ( 'NONE', #7, #122, #6 ) ;
#79 = CARTESIAN_POINT ( 'NONE',  ( 0.0000000000000000000, 0.0000000000000000000, 0.0000000000000000000 ) ) ;
#80 = ORIENTED_EDGE ( 'NONE', *, *, #231, .T. ) ;
#81 = DIRECTION ( 'NONE',  ( -1.000000000000000000, 0.0000000000000000000, 0.0000000000000000000 ) ) ;
#82 = VERTEX_POINT ( 'NONE', #17 ) ;
#83 = DIRECTION ( 'NONE',  ( 1.000000000000000000, 0.0000000000000000000, 0.0000000000000000000 ) ) ;
#84 = DIRECTION ( 'NONE',  ( 0.0000000000000000000, 1.000000000000000000, 0.0000000000000000000 ) ) ;
#85 = CC_DESIGN_DATE_AND_TIME_ASSIGNMENT ( #233, #187, ( #25 ) ) ;
#86 =( NAMED_UNIT ( * ) SI_UNIT ( $, .STERADIAN. ) SOLID_ANGLE_UNIT ( ) );
#87 = ORIENTED_EDGE ( 'NONE', *, *, #104, .F. ) ;
#88 = CARTESIAN_POINT ( 'NONE',  ( -25.14999999999998437, 0.0000000000000000000, 0.0000000000000000000 ) ) ;
#89 = DIRECTION ( 'NONE',  ( -1.000000000000000000, 1.224646799147353207E-16, 0.0000000000000000000 ) ) ;
#90 = DIRECTION ( 'NONE',  ( -1.000000000000000000, 0.0000000000000000000, 0.0000000000000000000 ) ) ;
#91 = CIRCLE ( 'NONE', #265, 25.14999999999998437 ) ;
#92 = COORDINATED_UNIVERSAL_TIME_OFFSET ( 5, 0, .BEHIND. ) ;
#93 = ADVANCED_FACE ( 'NONE', ( #54 ), #99, .T. ) ;
#94 = EDGE_LOOP ( 'NONE', ( #174, #160, #198, #121 ) ) ;
#95 = EDGE_CURVE ( 'NONE', #15, #13, #207, .T. ) ;
#96 = AXIS2_PLACEMENT_3D ( 'NONE', #219, #21, #83 ) ;
#97 = ADVANCED_FACE ( 'NONE', ( #1 ), #136, .T. ) ;
#98 = DATE_AND_TIME ( #170, #269 ) ;
#99 = CONICAL_SURFACE ( 'NONE', #256, 25.14999999999998437, 0.7853981633974412846 ) ;
#100 = CARTESIAN_POINT ( 'NONE',  ( 0.0000000000000000000, 2.656503836710438128E-14, -3.740000000000021085 ) ) ;
#101 = DESIGN_CONTEXT ( 'detailed design', #223, 'design' ) ;
#102 = EDGE_LOOP ( 'NONE', ( #139, #87, #245, #73 ) ) ;
#103 = EDGE_LOOP ( 'NONE', ( #128, #112, #80, #56, #117 ) ) ;
#104 = EDGE_CURVE ( 'NONE', #211, #82, #153, .T. ) ;
#105 = CARTESIAN_POINT ( 'NONE',  ( 0.0000000000000000000, 0.0000000000000000000, 0.0000000000000000000 ) ) ;
#106 = CARTESIAN_POINT ( 'NONE',  ( 0.0000000000000000000, 0.0000000000000000000, 430.0999999999999091 ) ) ;
#107 = CARTESIAN_POINT ( 'NONE',  ( -25.39999999999994174, 3.110602869834272132E-15, -2.995815726728079387 ) ) ;
#108 = COORDINATED_UNIVERSAL_TIME_OFFSET ( 5, 0, .BEHIND. ) ;
#109 = DIRECTION ( 'NONE',  ( -1.224646799147352961E-16, -1.000000000000000000, 0.0000000000000000000 ) ) ;
#110 = MECHANICAL_CONTEXT ( 'NONE', #165, 'mechanical' ) ;
#111 = EDGE_CURVE ( 'NONE', #211, #13, #36, .T. ) ;
#112 = ORIENTED_EDGE ( 'NONE', *, *, #176, .T. ) ;
#113 = CLOSED_SHELL ( 'NONE', ( #93, #232, #97, #47, #208, #71, #44 ) ) ;
#114 = CIRCLE ( 'NONE', #235, 433.8399999999999750 ) ;
#115 = EDGE_CURVE ( 'NONE', #82, #169, #185, .T. ) ;
#116 = APPROVAL ( #248, 'UNSPECIFIED' ) ;
#117 = ORIENTED_EDGE ( 'NONE', *, *, #52, .T. ) ;
#118 = PERSON_AND_ORGANIZATION ( #173, #50 ) ;
#119 = PERSON_AND_ORGANIZATION ( #173, #50 ) ;
#120 = AXIS2_PLACEMENT_3D ( 'NONE', #199, #125, #61 ) ;
#121 = ORIENTED_EDGE ( 'NONE', *, *, #220, .F. ) ;
#122 = DIRECTION ( 'NONE',  ( -0.0000000000000000000, -0.0000000000000000000, 1.000000000000000000 ) ) ;
#123 = EDGE_CURVE ( 'NONE', #258, #212, #239, .T. ) ;
#124 = APPROVAL ( #150, 'UNSPECIFIED' ) ;
#125 = DIRECTION ( 'NONE',  ( 0.0000000000000000000, 0.0000000000000000000, -1.000000000000000000 ) ) ;
#126 = SPHERICAL_SURFACE ( 'NONE', #182, 433.8399999999999750 ) ;
#127 = CARTESIAN_POINT ( 'NONE',  ( 0.0000000000000000000, 25.40000000000003055, -2.995815726728079387 ) ) ;
#128 = ORIENTED_EDGE ( 'NONE', *, *, #95, .F. ) ;
#129 = DIRECTION ( 'NONE',  ( 1.000000000000000000, 0.0000000000000000000, 0.0000000000000000000 ) ) ;
#130 = EDGE_CURVE ( 'NONE', #13, #169, #225, .T. ) ;
#131 = APPROVAL_ROLE ( '' ) ;
#132 = PERSON_AND_ORGANIZATION_ROLE ( 'creator' ) ;
#133 = SECURITY_CLASSIFICATION_LEVEL ( 'unclassified' ) ;
#134 = DIRECTION ( 'NONE',  ( 1.000000000000000000, 0.0000000000000000000, 0.0000000000000000000 ) ) ;
#135 = FACE_OUTER_BOUND ( 'NONE', #103, .T. ) ;
#136 = CYLINDRICAL_SURFACE ( 'NONE', #28, 25.39999999999997016 ) ;
#137 = APPROVAL ( #203, 'UNSPECIFIED' ) ;
#138 = ORIENTED_EDGE ( 'NONE', *, *, #123, .F. ) ;
#139 = ORIENTED_EDGE ( 'NONE', *, *, #115, .F. ) ;
#140 = LOCAL_TIME ( 15, 27, 6.000000000000000000, #194 ) ;
#141 = AXIS2_PLACEMENT_3D ( 'NONE', #246, #34, #84 ) ;
#142 = CC_DESIGN_PERSON_AND_ORGANIZATION_ASSIGNMENT ( #158, #253, ( #69 ) ) ;
#143 = CARTESIAN_POINT ( 'NONE',  ( 0.0000000000000000000, 0.0000000000000000000, 430.0999999999999091 ) ) ;
#144 = ORIENTED_EDGE ( 'NONE', *, *, #46, .F. ) ;
#145 = DIRECTION ( 'NONE',  ( -0.0000000000000000000, -0.0000000000000000000, 1.000000000000000000 ) ) ;
#146 = AXIS2_PLACEMENT_3D ( 'NONE', #60, #180, #261 ) ;
#147 = DIRECTION ( 'NONE',  ( 1.000000000000000000, 0.0000000000000000000, 0.0000000000000000000 ) ) ;
#148 = CALENDAR_DATE ( 2019, 16, 12 ) ;
#149 = CARTESIAN_POINT ( 'NONE',  ( 0.0000000000000000000, 0.0000000000000000000, 0.0000000000000000000 ) ) ;
#150 = APPROVAL_STATUS ( 'not_yet_approved' ) ;
#151 = AXIS2_PLACEMENT_3D ( 'NONE', #266, #64, #267 ) ;
#152 = ORIENTED_EDGE ( 'NONE', *, *, #104, .T. ) ;
#153 = CIRCLE ( 'NONE', #213, 25.14999999999998437 ) ;
#154 = FACE_OUTER_BOUND ( 'NONE', #68, .T. ) ;
#155 = DATE_AND_TIME ( #172, #228 ) ;
#156 = ADVANCED_BREP_SHAPE_REPRESENTATION ( 'TTN188101-E0W', ( #210, #96 ), #241 ) ;
#157 = PRODUCT ( 'TTN188101-E0W', 'TTN188101-E0W', '', ( #110 ) ) ;
#158 = PERSON_AND_ORGANIZATION ( #173, #50 ) ;
#159 = CARTESIAN_POINT ( 'NONE',  ( 25.39999999999994174, 0.0000000000000000000, -2.995815726728079387 ) ) ;
#160 = ORIENTED_EDGE ( 'NONE', *, *, #77, .T. ) ;
#161 = CARTESIAN_POINT ( 'NONE',  ( 0.0000000000000000000, 0.0000000000000000000, -0.2499999999999898137 ) ) ;
#162 = CIRCLE ( 'NONE', #151, 25.39999999999997016 ) ;
#163 = EDGE_CURVE ( 'NONE', #258, #169, #214, .T. ) ;
#164 = CC_DESIGN_APPROVAL ( #116, ( #25 ) ) ;
#165 = APPLICATION_CONTEXT ( 'configuration controlled 3d designs of mechanical parts and assemblies' ) ;
#166 =( NAMED_UNIT ( * ) PLANE_ANGLE_UNIT ( ) SI_UNIT ( $, .RADIAN. ) );
#167 = LOCAL_TIME ( 15, 27, 6.000000000000000000, #30 ) ;
#168 = ORIENTED_EDGE ( 'NONE', *, *, #231, .F. ) ;
#169 = VERTEX_POINT ( 'NONE', #216 ) ;
#170 = CALENDAR_DATE ( 2019, 16, 12 ) ;
#171 = AXIS2_PLACEMENT_3D ( 'NONE', #79, #12, #9 ) ;
#172 = CALENDAR_DATE ( 2019, 16, 12 ) ;
#173 = PERSON ( 'UNSPECIFIED', 'UNSPECIFIED', 'UNSPECIFIED', ('UNSPECIFIED'), ('UNSPECIFIED'), ('UNSPECIFIED') ) ;
#174 = ORIENTED_EDGE ( 'NONE', *, *, #57, .F. ) ;
#175 = EDGE_LOOP ( 'NONE', ( #191, #24, #49, #31, #222 ) ) ;
#176 = EDGE_CURVE ( 'NONE', #15, #55, #238, .T. ) ;
#177 = SHAPE_DEFINITION_REPRESENTATION ( #255, #156 ) ;
#178 = VECTOR ( 'NONE', #66, 999.9999999999998863 ) ;
#179 = DIRECTION ( 'NONE',  ( 0.0000000000000000000, 1.000000000000000000, 0.0000000000000000000 ) ) ;
#180 = DIRECTION ( 'NONE',  ( -0.0000000000000000000, -0.0000000000000000000, 1.000000000000000000 ) ) ;
#181 = DATE_AND_TIME ( #260, #140 ) ;
#182 = AXIS2_PLACEMENT_3D ( 'NONE', #143, #81, #179 ) ;
#183 = CC_DESIGN_SECURITY_CLASSIFICATION ( #25, ( #69 ) ) ;
#184 = DIRECTION ( 'NONE',  ( -0.0000000000000000000, -0.0000000000000000000, 1.000000000000000000 ) ) ;
#185 = LINE ( 'NONE', #202, #20 ) ;
#186 = CARTESIAN_POINT ( 'NONE',  ( 0.0000000000000000000, 0.0000000000000000000, -2.995815726728079387 ) ) ;
#187 = DATE_TIME_ROLE ( 'classification_date' ) ;
#188 = DIRECTION ( 'NONE',  ( 1.000000000000000000, 0.0000000000000000000, 0.0000000000000000000 ) ) ;
#189 = AXIS2_PLACEMENT_3D ( 'NONE', #106, #129, #201 ) ;
#190 = ORIENTED_EDGE ( 'NONE', *, *, #111, .F. ) ;
#191 = ORIENTED_EDGE ( 'NONE', *, *, #123, .T. ) ;
#192 = FACE_OUTER_BOUND ( 'NONE', #102, .T. ) ;
#193 = APPROVAL_DATE_TIME ( #181, #116 ) ;
#194 = COORDINATED_UNIVERSAL_TIME_OFFSET ( 5, 0, .BEHIND. ) ;
#195 = PERSON_AND_ORGANIZATION ( #173, #50 ) ;
#196 = CARTESIAN_POINT ( 'NONE',  ( 0.0000000000000000000, 0.0000000000000000000, 0.0000000000000000000 ) ) ;
#197 = CARTESIAN_POINT ( 'NONE',  ( 0.0000000000000000000, 0.0000000000000000000, -2.995815726728079387 ) ) ;
#198 = ORIENTED_EDGE ( 'NONE', *, *, #176, .F. ) ;
#199 = CARTESIAN_POINT ( 'NONE',  ( 0.0000000000000000000, 0.0000000000000000000, 0.0000000000000000000 ) ) ;
#200 = CYLINDRICAL_SURFACE ( 'NONE', #65, 25.39999999999997016 ) ;
#201 = DIRECTION ( 'NONE',  ( 0.0000000000000000000, 0.0000000000000000000, -1.000000000000000000 ) ) ;
#202 = CARTESIAN_POINT ( 'NONE',  ( 25.14999999999998437, 3.079986699855591500E-15, 0.0000000000000000000 ) ) ;
#203 = APPROVAL_STATUS ( 'not_yet_approved' ) ;
#204 = PERSON_AND_ORGANIZATION_ROLE ( 'creator' ) ;
#205 = CARTESIAN_POINT ( 'NONE',  ( 25.39999999999997016, 0.0000000000000000000, 0.0000000000000000000 ) ) ;
#206 = VERTEX_POINT ( 'NONE', #100 ) ;
#207 = LINE ( 'NONE', #22, #45 ) ;
#208 = ADVANCED_FACE ( 'NONE', ( #135 ), #200, .T. ) ;
#209 = CALENDAR_DATE ( 2019, 16, 12 ) ;
#210 = MANIFOLD_SOLID_BREP ( 'TTN188109-1-solid1', #113 ) ;
#211 = VERTEX_POINT ( 'NONE', #240 ) ;
#212 = VERTEX_POINT ( 'NONE', #127 ) ;
#213 = AXIS2_PLACEMENT_3D ( 'NONE', #37, #271, #227 ) ;
#214 = LINE ( 'NONE', #205, #67 ) ;
#215 = CONICAL_SURFACE ( 'NONE', #120, 25.14999999999998437, 0.7853981633974412846 ) ;
#216 = CARTESIAN_POINT ( 'NONE',  ( 25.39999999999997016, 0.0000000000000000000, -0.2499999999999898137 ) ) ;
#217 = DIRECTION ( 'NONE',  ( -1.000000000000000000, 0.0000000000000000000, 0.0000000000000000000 ) ) ;
#218 = DIRECTION ( 'NONE',  ( -0.0000000000000000000, -0.0000000000000000000, 1.000000000000000000 ) ) ;
#219 = CARTESIAN_POINT ( 'NONE',  ( 0.0000000000000000000, 0.0000000000000000000, 0.0000000000000000000 ) ) ;
#220 = EDGE_CURVE ( 'NONE', #212, #15, #4, .T. ) ;
#221 = PRODUCT_DEFINITION ( 'UNKNOWN', '', #69, #101 ) ;
#222 = ORIENTED_EDGE ( 'NONE', *, *, #163, .F. ) ;
#223 = APPLICATION_CONTEXT ( 'configuration controlled 3d designs of mechanical parts and assemblies' ) ;
#224 = ORIENTED_EDGE ( 'NONE', *, *, #46, .T. ) ;
#225 = CIRCLE ( 'NONE', #42, 25.39999999999997016 ) ;
#226 = DIRECTION ( 'NONE',  ( 0.7071067811865425767, 8.659560562354873694E-17, -0.7071067811865525687 ) ) ;
#227 = DIRECTION ( 'NONE',  ( -1.000000000000000000, 0.0000000000000000000, 0.0000000000000000000 ) ) ;
#228 = LOCAL_TIME ( 15, 27, 6.000000000000000000, #92 ) ;
#229 = EDGE_LOOP ( 'NONE', ( #144, #23, #259, #190 ) ) ;
#230 = FACE_OUTER_BOUND ( 'NONE', #94, .T. ) ;
#231 = EDGE_CURVE ( 'NONE', #55, #258, #75, .T. ) ;
#232 = ADVANCED_FACE ( 'NONE', ( #230 ), #126, .T. ) ;
#233 = DATE_AND_TIME ( #148, #48 ) ;
#234 = CIRCLE ( 'NONE', #189, 433.8399999999999750 ) ;
#235 = AXIS2_PLACEMENT_3D ( 'NONE', #38, #89, #109 ) ;
#236 = CC_DESIGN_APPROVAL ( #124, ( #221 ) ) ;
#237 = ORIENTED_EDGE ( 'NONE', *, *, #77, .F. ) ;
#238 = CIRCLE ( 'NONE', #249, 25.39999999999994174 ) ;
#239 = CIRCLE ( 'NONE', #10, 25.39999999999994174 ) ;
#240 = CARTESIAN_POINT ( 'NONE',  ( -25.14999999999998437, 0.0000000000000000000, 0.0000000000000000000 ) ) ;
#241 =( GEOMETRIC_REPRESENTATION_CONTEXT ( 3 ) GLOBAL_UNCERTAINTY_ASSIGNED_CONTEXT ( ( #51 ) ) GLOBAL_UNIT_ASSIGNED_CONTEXT ( ( #242, #166, #86 ) ) REPRESENTATION_CONTEXT ( 'NONE', 'WORKASPACE' ) );
#242 =( LENGTH_UNIT ( ) NAMED_UNIT ( * ) SI_UNIT ( .MILLI., .METRE. ) );
#243 = PLANE ( 'NONE',  #171 ) ;
#244 = DIRECTION ( 'NONE',  ( -0.0000000000000000000, -0.0000000000000000000, 1.000000000000000000 ) ) ;
#245 = ORIENTED_EDGE ( 'NONE', *, *, #111, .T. ) ;
#246 = CARTESIAN_POINT ( 'NONE',  ( 0.0000000000000000000, 0.0000000000000000000, 430.0999999999999091 ) ) ;
#247 = APPROVAL_PERSON_ORGANIZATION ( #8, #116, #40 ) ;
#248 = APPROVAL_STATUS ( 'not_yet_approved' ) ;
#249 = AXIS2_PLACEMENT_3D ( 'NONE', #197, #218, #14 ) ;
#250 = DATE_TIME_ROLE ( 'creation_date' ) ;
#251 = DIRECTION ( 'NONE',  ( 0.0000000000000000000, 0.0000000000000000000, -1.000000000000000000 ) ) ;
#252 = DIRECTION ( 'NONE',  ( -0.0000000000000000000, -0.0000000000000000000, 1.000000000000000000 ) ) ;
#253 = PERSON_AND_ORGANIZATION_ROLE ( 'design_supplier' ) ;
#254 = DIRECTION ( 'NONE',  ( -0.0000000000000000000, -0.0000000000000000000, 1.000000000000000000 ) ) ;
#255 = PRODUCT_DEFINITION_SHAPE ( 'NONE', 'NONE',  #221 ) ;
#256 = AXIS2_PLACEMENT_3D ( 'NONE', #105, #251, #90 ) ;
#257 = CC_DESIGN_PERSON_AND_ORGANIZATION_ASSIGNMENT ( #118, #16, ( #157 ) ) ;
#258 = VERTEX_POINT ( 'NONE', #159 ) ;
#259 = ORIENTED_EDGE ( 'NONE', *, *, #130, .F. ) ;
#260 = CALENDAR_DATE ( 2019, 16, 12 ) ;
#261 = DIRECTION ( 'NONE',  ( 1.000000000000000000, 0.0000000000000000000, 0.0000000000000000000 ) ) ;
#262 = CARTESIAN_POINT ( 'NONE',  ( -3.110602869834280809E-15, -25.40000000000003055, -2.995815726728079387 ) ) ;
#263 = PERSON_AND_ORGANIZATION ( #173, #50 ) ;
#264 = DIRECTION ( 'NONE',  ( 0.0000000000000000000, 0.0000000000000000000, -1.000000000000000000 ) ) ;
#265 = AXIS2_PLACEMENT_3D ( 'NONE', #196, #145, #217 ) ;
#266 = CARTESIAN_POINT ( 'NONE',  ( 0.0000000000000000000, 0.0000000000000000000, -0.2499999999999898137 ) ) ;
#267 = DIRECTION ( 'NONE',  ( -1.000000000000000000, 0.0000000000000000000, 0.0000000000000000000 ) ) ;
#268 = PERSON_AND_ORGANIZATION_ROLE ( 'classification_officer' ) ;
#269 = LOCAL_TIME ( 15, 27, 6.000000000000000000, #43 ) ;
#270 = APPLICATION_PROTOCOL_DEFINITION ( 'international standard', 'config_control_design', 1994, #223 ) ;
#271 = DIRECTION ( 'NONE',  ( -0.0000000000000000000, -0.0000000000000000000, 1.000000000000000000 ) ) ;
ENDSEC;
END-ISO-10303-21;
