ISO-10303-21;
HEADER;
FILE_DESCRIPTION (( 'STEP AP203' ),
    '1' );
FILE_NAME ('Web Model 14961_18326.step',
    '2021-06-28T14:52:17',
    ( '' ),
    ( '' ),
    'SwSTEP 2.0',
    'SolidWorks 2018',
    '' );
FILE_SCHEMA (( 'CONFIG_CONTROL_DESIGN' ));
ENDSEC;

DATA;
#1 = EDGE_LOOP ( 'NONE', ( #143, #29 ) ) ;
#2 = AXIS2_PLACEMENT_3D ( 'NONE', #31, #121, #46 ) ;
#3 = CARTESIAN_POINT ( 'NONE',  ( 1.000000000000000000, 0.000000000000000000, 0.000000000000000000 ) ) ;
#4 = PERSON_AND_ORGANIZATION ( #130, #10 ) ;
#5 = DATE_AND_TIME ( #150, #161 ) ;
#6 = DIRECTION ( 'NONE',  ( 0.000000000000000000, 0.000000000000000000, -1.000000000000000000 ) ) ;
#7 = ADVANCED_FACE ( 'NONE', ( #87 ), #45, .T. ) ;
#8 = AXIS2_PLACEMENT_3D ( 'NONE', #111, #166, #89 ) ;
#9 = DATE_AND_TIME ( #133, #27 ) ;
#10 = ORGANIZATION ( 'UNSPECIFIED', 'UNSPECIFIED', '' ) ;
#11 = AXIS2_PLACEMENT_3D ( 'NONE', #16, #18, #154 ) ;
#12 = ORIENTED_EDGE ( 'NONE', *, *, #162, .T. ) ;
#13 = EDGE_CURVE ( 'NONE', #37, #69, #56, .T. ) ;
#14 = DATE_AND_TIME ( #55, #58 ) ;
#15 = PERSON_AND_ORGANIZATION ( #130, #10 ) ;
#16 = CARTESIAN_POINT ( 'NONE',  ( -1.000000000000000000, 0.000000000000000000, 0.000000000000000000 ) ) ;
#17 = DIRECTION ( 'NONE',  ( -1.000000000000000000, -0.000000000000000000, -0.000000000000000000 ) ) ;
#18 = DIRECTION ( 'NONE',  ( 1.000000000000000000, 0.000000000000000000, 0.000000000000000000 ) ) ;
#19 = CIRCLE ( 'NONE', #23, 10.00000000000000000 ) ;
#20 = MECHANICAL_CONTEXT ( 'NONE', #169, 'mechanical' ) ;
#21 = COORDINATED_UNIVERSAL_TIME_OFFSET ( 5, 0, .BEHIND. ) ;
#22 = SECURITY_CLASSIFICATION_LEVEL ( 'unclassified' ) ;
#23 = AXIS2_PLACEMENT_3D ( 'NONE', #3, #49, #78 ) ;
#24 =( GEOMETRIC_REPRESENTATION_CONTEXT ( 3 ) GLOBAL_UNCERTAINTY_ASSIGNED_CONTEXT ( ( #104 ) ) GLOBAL_UNIT_ASSIGNED_CONTEXT ( ( #48, #144, #75 ) ) REPRESENTATION_CONTEXT ( 'NONE', 'WORKASPACE' ) );
#25 = ORIENTED_EDGE ( 'NONE', *, *, #115, .T. ) ;
#26 = COORDINATED_UNIVERSAL_TIME_OFFSET ( 5, 0, .BEHIND. ) ;
#27 = LOCAL_TIME ( 10, 52, 17.00000000000000000, #51 ) ;
#28 = EDGE_LOOP ( 'NONE', ( #25, #158 ) ) ;
#29 = ORIENTED_EDGE ( 'NONE', *, *, #30, .F. ) ;
#30 = EDGE_CURVE ( 'NONE', #135, #69, #116, .T. ) ;
#31 = CARTESIAN_POINT ( 'NONE',  ( 1.000000000000000000, 0.000000000000000000, 0.000000000000000000 ) ) ;
#32 = APPROVAL_DATE_TIME ( #14, #149 ) ;
#33 = PLANE ( 'NONE',  #34 ) ;
#34 = AXIS2_PLACEMENT_3D ( 'NONE', #88, #36, #80 ) ;
#35 = PERSON_AND_ORGANIZATION_ROLE ( 'design_owner' ) ;
#36 = DIRECTION ( 'NONE',  ( 1.000000000000000000, 0.000000000000000000, 0.000000000000000000 ) ) ;
#37 = VERTEX_POINT ( 'NONE', #107 ) ;
#38 = AXIS2_PLACEMENT_3D ( 'NONE', #168, #100, #86 ) ;
#39 = ADVANCED_FACE ( 'NONE', ( #118 ), #167, .F. ) ;
#40 = CARTESIAN_POINT ( 'NONE',  ( 1.000000000000000000, 1.224646799147353256E-15, -10.00000000000000000 ) ) ;
#41 = APPROVAL_PERSON_ORGANIZATION ( #4, #117, #83 ) ;
#42 = VECTOR ( 'NONE', #17, 1000.000000000000000 ) ;
#43 = CC_DESIGN_PERSON_AND_ORGANIZATION_ASSIGNMENT ( #134, #129, ( #160 ) ) ;
#44 = AXIS2_PLACEMENT_3D ( 'NONE', #125, #61, #6 ) ;
#45 = CYLINDRICAL_SURFACE ( 'NONE', #2, 10.00000000000000000 ) ;
#46 = DIRECTION ( 'NONE',  ( 0.000000000000000000, 0.000000000000000000, 1.000000000000000000 ) ) ;
#47 = CIRCLE ( 'NONE', #54, 10.00000000000000000 ) ;
#48 =( LENGTH_UNIT ( ) NAMED_UNIT ( * ) SI_UNIT ( .MILLI., .METRE. ) );
#49 = DIRECTION ( 'NONE',  ( 1.000000000000000000, 0.000000000000000000, 0.000000000000000000 ) ) ;
#50 = PERSON_AND_ORGANIZATION_ROLE ( 'creator' ) ;
#51 = COORDINATED_UNIVERSAL_TIME_OFFSET ( 5, 0, .BEHIND. ) ;
#52 = MANIFOLD_SOLID_BREP ( 'Boss-Extrude1', #126 ) ;
#53 = PERSON_AND_ORGANIZATION ( #130, #10 ) ;
#54 = AXIS2_PLACEMENT_3D ( 'NONE', #65, #171, #141 ) ;
#55 = CALENDAR_DATE ( 2021, 28, 6 ) ;
#56 = LINE ( 'NONE', #138, #60 ) ;
#57 = CC_DESIGN_PERSON_AND_ORGANIZATION_ASSIGNMENT ( #15, #35, ( #82 ) ) ;
#58 = LOCAL_TIME ( 10, 52, 17.00000000000000000, #73 ) ;
#59 = PRODUCT_DEFINITION_SHAPE ( 'NONE', 'NONE',  #92 ) ;
#60 = VECTOR ( 'NONE', #77, 1000.000000000000000 ) ;
#61 = DIRECTION ( 'NONE',  ( 1.000000000000000000, 0.000000000000000000, 0.000000000000000000 ) ) ;
#62 = APPROVAL_STATUS ( 'not_yet_approved' ) ;
#63 = EDGE_LOOP ( 'NONE', ( #170, #131, #68, #97 ) ) ;
#64 = PERSON_AND_ORGANIZATION ( #130, #10 ) ;
#65 = CARTESIAN_POINT ( 'NONE',  ( -1.000000000000000000, 0.000000000000000000, 0.000000000000000000 ) ) ;
#66 = APPROVAL_ROLE ( '' ) ;
#67 = DATE_TIME_ROLE ( 'classification_date' ) ;
#68 = ORIENTED_EDGE ( 'NONE', *, *, #30, .T. ) ;
#69 = VERTEX_POINT ( 'NONE', #155 ) ;
#70 = CC_DESIGN_APPROVAL ( #149, ( #160 ) ) ;
#71 = DESIGN_CONTEXT ( 'detailed design', #112, 'design' ) ;
#72 = ADVANCED_BREP_SHAPE_REPRESENTATION ( 'Web Model 14961_18326', ( #52, #119 ), #24 ) ;
#73 = COORDINATED_UNIVERSAL_TIME_OFFSET ( 5, 0, .BEHIND. ) ;
#74 = CC_DESIGN_APPROVAL ( #156, ( #92 ) ) ;
#75 =( NAMED_UNIT ( * ) SI_UNIT ( $, .STERADIAN. ) SOLID_ANGLE_UNIT ( ) );
#76 = ADVANCED_FACE ( 'NONE', ( #120 ), #33, .T. ) ;
#77 = DIRECTION ( 'NONE',  ( -1.000000000000000000, -0.000000000000000000, -0.000000000000000000 ) ) ;
#78 = DIRECTION ( 'NONE',  ( 0.000000000000000000, 0.000000000000000000, -1.000000000000000000 ) ) ;
#79 = PERSON_AND_ORGANIZATION ( #130, #10 ) ;
#80 = DIRECTION ( 'NONE',  ( 0.000000000000000000, 0.000000000000000000, -1.000000000000000000 ) ) ;
#81 = CC_DESIGN_PERSON_AND_ORGANIZATION_ASSIGNMENT ( #174, #173, ( #160 ) ) ;
#82 = PRODUCT ( 'Web Model 14961_18326', 'Web Model 14961_18326', '', ( #20 ) ) ;
#83 = APPROVAL_ROLE ( '' ) ;
#84 = COORDINATED_UNIVERSAL_TIME_OFFSET ( 5, 0, .BEHIND. ) ;
#85 = CC_DESIGN_DATE_AND_TIME_ASSIGNMENT ( #157, #67, ( #172 ) ) ;
#86 = DIRECTION ( 'NONE',  ( 0.000000000000000000, 0.000000000000000000, 1.000000000000000000 ) ) ;
#87 = FACE_OUTER_BOUND ( 'NONE', #63, .T. ) ;
#88 = CARTESIAN_POINT ( 'NONE',  ( 1.000000000000000000, 0.000000000000000000, 0.000000000000000000 ) ) ;
#89 = DIRECTION ( 'NONE',  ( 0.000000000000000000, 0.000000000000000000, -1.000000000000000000 ) ) ;
#90 = VERTEX_POINT ( 'NONE', #101 ) ;
#91 = CYLINDRICAL_SURFACE ( 'NONE', #38, 10.00000000000000000 ) ;
#92 = PRODUCT_DEFINITION ( 'UNKNOWN', '', #160, #71 ) ;
#93 = CALENDAR_DATE ( 2021, 28, 6 ) ;
#94 = CC_DESIGN_APPROVAL ( #117, ( #172 ) ) ;
#95 = APPROVAL_PERSON_ORGANIZATION ( #105, #149, #66 ) ;
#96 = EDGE_CURVE ( 'NONE', #90, #37, #19, .T. ) ;
#97 = ORIENTED_EDGE ( 'NONE', *, *, #13, .F. ) ;
#98 = SHAPE_DEFINITION_REPRESENTATION ( #59, #72 ) ;
#99 = CARTESIAN_POINT ( 'NONE',  ( 0.000000000000000000, 0.000000000000000000, 0.000000000000000000 ) ) ;
#100 = DIRECTION ( 'NONE',  ( -1.000000000000000000, -0.000000000000000000, -0.000000000000000000 ) ) ;
#101 = CARTESIAN_POINT ( 'NONE',  ( 1.000000000000000000, 1.224646799147353256E-15, -10.00000000000000000 ) ) ;
#102 = EDGE_LOOP ( 'NONE', ( #153, #163, #132, #12 ) ) ;
#103 = CALENDAR_DATE ( 2021, 28, 6 ) ;
#104 = UNCERTAINTY_MEASURE_WITH_UNIT (LENGTH_MEASURE( 1.000000000000000082E-05 ), #48, 'distance_accuracy_value', 'NONE');
#105 = PERSON_AND_ORGANIZATION ( #130, #10 ) ;
#106 = CC_DESIGN_PERSON_AND_ORGANIZATION_ASSIGNMENT ( #53, #50, ( #92 ) ) ;
#107 = CARTESIAN_POINT ( 'NONE',  ( 1.000000000000000000, 0.000000000000000000, 10.00000000000000000 ) ) ;
#108 = APPROVAL_STATUS ( 'not_yet_approved' ) ;
#109 = APPROVAL_DATE_TIME ( #5, #156 ) ;
#110 = DIRECTION ( 'NONE',  ( 1.000000000000000000, 0.000000000000000000, 0.000000000000000000 ) ) ;
#111 = CARTESIAN_POINT ( 'NONE',  ( -1.000000000000000000, 0.000000000000000000, 0.000000000000000000 ) ) ;
#112 = APPLICATION_CONTEXT ( 'configuration controlled 3d designs of mechanical parts and assemblies' ) ;
#113 = CC_DESIGN_DATE_AND_TIME_ASSIGNMENT ( #148, #146, ( #92 ) ) ;
#114 = PERSON_AND_ORGANIZATION_ROLE ( 'classification_officer' ) ;
#115 = EDGE_CURVE ( 'NONE', #37, #90, #139, .T. ) ;
#116 = CIRCLE ( 'NONE', #8, 10.00000000000000000 ) ;
#117 = APPROVAL ( #147, 'UNSPECIFIED' ) ;
#118 = FACE_OUTER_BOUND ( 'NONE', #1, .T. ) ;
#119 = AXIS2_PLACEMENT_3D ( 'NONE', #99, #140, #110 ) ;
#120 = FACE_OUTER_BOUND ( 'NONE', #28, .T. ) ;
#121 = DIRECTION ( 'NONE',  ( -1.000000000000000000, -0.000000000000000000, -0.000000000000000000 ) ) ;
#122 = EDGE_CURVE ( 'NONE', #90, #135, #127, .T. ) ;
#123 = LOCAL_TIME ( 10, 52, 17.00000000000000000, #21 ) ;
#124 = CARTESIAN_POINT ( 'NONE',  ( -1.000000000000000000, 1.224646799147353256E-15, -10.00000000000000000 ) ) ;
#125 = CARTESIAN_POINT ( 'NONE',  ( 1.000000000000000000, 0.000000000000000000, 0.000000000000000000 ) ) ;
#126 = CLOSED_SHELL ( 'NONE', ( #7, #151, #76, #39 ) ) ;
#127 = LINE ( 'NONE', #40, #42 ) ;
#128 = APPLICATION_PROTOCOL_DEFINITION ( 'international standard', 'config_control_design', 1994, #112 ) ;
#129 = PERSON_AND_ORGANIZATION_ROLE ( 'design_supplier' ) ;
#130 = PERSON ( 'UNSPECIFIED', 'UNSPECIFIED', 'UNSPECIFIED', ('UNSPECIFIED'), ('UNSPECIFIED'), ('UNSPECIFIED') ) ;
#131 = ORIENTED_EDGE ( 'NONE', *, *, #122, .T. ) ;
#132 = ORIENTED_EDGE ( 'NONE', *, *, #13, .T. ) ;
#133 = CALENDAR_DATE ( 2021, 28, 6 ) ;
#134 = PERSON_AND_ORGANIZATION ( #130, #10 ) ;
#135 = VERTEX_POINT ( 'NONE', #124 ) ;
#136 = FACE_OUTER_BOUND ( 'NONE', #102, .T. ) ;
#137 = CC_DESIGN_SECURITY_CLASSIFICATION ( #172, ( #160 ) ) ;
#138 = CARTESIAN_POINT ( 'NONE',  ( 1.000000000000000000, 0.000000000000000000, 10.00000000000000000 ) ) ;
#139 = CIRCLE ( 'NONE', #44, 10.00000000000000000 ) ;
#140 = DIRECTION ( 'NONE',  ( 0.000000000000000000, 0.000000000000000000, 1.000000000000000000 ) ) ;
#141 = DIRECTION ( 'NONE',  ( 0.000000000000000000, 0.000000000000000000, -1.000000000000000000 ) ) ;
#142 = APPROVAL_DATE_TIME ( #9, #117 ) ;
#143 = ORIENTED_EDGE ( 'NONE', *, *, #162, .F. ) ;
#144 =( NAMED_UNIT ( * ) PLANE_ANGLE_UNIT ( ) SI_UNIT ( $, .RADIAN. ) );
#145 = APPLICATION_PROTOCOL_DEFINITION ( 'international standard', 'config_control_design', 1994, #169 ) ;
#146 = DATE_TIME_ROLE ( 'creation_date' ) ;
#147 = APPROVAL_STATUS ( 'not_yet_approved' ) ;
#148 = DATE_AND_TIME ( #103, #159 ) ;
#149 = APPROVAL ( #108, 'UNSPECIFIED' ) ;
#150 = CALENDAR_DATE ( 2021, 28, 6 ) ;
#151 = ADVANCED_FACE ( 'NONE', ( #136 ), #91, .T. ) ;
#152 = APPROVAL_ROLE ( '' ) ;
#153 = ORIENTED_EDGE ( 'NONE', *, *, #122, .F. ) ;
#154 = DIRECTION ( 'NONE',  ( 0.000000000000000000, 0.000000000000000000, -1.000000000000000000 ) ) ;
#155 = CARTESIAN_POINT ( 'NONE',  ( -1.000000000000000000, 0.000000000000000000, 10.00000000000000000 ) ) ;
#156 = APPROVAL ( #62, 'UNSPECIFIED' ) ;
#157 = DATE_AND_TIME ( #93, #123 ) ;
#158 = ORIENTED_EDGE ( 'NONE', *, *, #96, .T. ) ;
#159 = LOCAL_TIME ( 10, 52, 17.00000000000000000, #84 ) ;
#160 = PRODUCT_DEFINITION_FORMATION_WITH_SPECIFIED_SOURCE ( 'ANY', '', #82, .NOT_KNOWN. ) ;
#161 = LOCAL_TIME ( 10, 52, 17.00000000000000000, #26 ) ;
#162 = EDGE_CURVE ( 'NONE', #69, #135, #47, .T. ) ;
#163 = ORIENTED_EDGE ( 'NONE', *, *, #115, .F. ) ;
#164 = PRODUCT_RELATED_PRODUCT_CATEGORY ( 'detail', '', ( #82 ) ) ;
#165 = APPROVAL_PERSON_ORGANIZATION ( #64, #156, #152 ) ;
#166 = DIRECTION ( 'NONE',  ( 1.000000000000000000, 0.000000000000000000, 0.000000000000000000 ) ) ;
#167 = PLANE ( 'NONE',  #11 ) ;
#168 = CARTESIAN_POINT ( 'NONE',  ( 1.000000000000000000, 0.000000000000000000, 0.000000000000000000 ) ) ;
#169 = APPLICATION_CONTEXT ( 'configuration controlled 3d designs of mechanical parts and assemblies' ) ;
#170 = ORIENTED_EDGE ( 'NONE', *, *, #96, .F. ) ;
#171 = DIRECTION ( 'NONE',  ( 1.000000000000000000, 0.000000000000000000, 0.000000000000000000 ) ) ;
#172 = SECURITY_CLASSIFICATION ( '', '', #22 ) ;
#173 = PERSON_AND_ORGANIZATION_ROLE ( 'creator' ) ;
#174 = PERSON_AND_ORGANIZATION ( #130, #10 ) ;
#175 = CC_DESIGN_PERSON_AND_ORGANIZATION_ASSIGNMENT ( #79, #114, ( #172 ) ) ;
ENDSEC;
END-ISO-10303-21;
