ISO-10303-21;
HEADER;
FILE_DESCRIPTION (( 'STEP AP203' ),
    '1' );
FILE_NAME ('Web Model 43817_43736.step',
    '2017-04-10T17:29:35',
    ( '' ),
    ( '' ),
    'SwSTEP 2.0',
    'SolidWorks 2016',
    '' );
FILE_SCHEMA (( 'CONFIG_CONTROL_DESIGN' ));
ENDSEC;

DATA;
#1 = CARTESIAN_POINT ( 'NONE',  ( 0.0000000000000000000, 0.0000000000000000000, 0.5000000000000000000 ) ) ;
#2 = CARTESIAN_POINT ( 'NONE',  ( 0.0000000000000000000, 0.0000000000000000000, 0.5000000000000000000 ) ) ;
#3 = CARTESIAN_POINT ( 'NONE',  ( 0.0000000000000000000, 0.0000000000000000000, -0.5000000000000000000 ) ) ;
#4 = AXIS2_PLACEMENT_3D ( 'NONE', #7, #164, #135 ) ;
#5 = ORIENTED_EDGE ( 'NONE', *, *, #123, .T. ) ;
#6 = CIRCLE ( 'NONE', #84, 12.50000000000000000 ) ;
#7 = CARTESIAN_POINT ( 'NONE',  ( 0.0000000000000000000, 0.0000000000000000000, -0.5000000000000000000 ) ) ;
#8 = ORGANIZATION ( 'UNSPECIFIED', 'UNSPECIFIED', '' ) ;
#9 = VERTEX_POINT ( 'NONE', #46 ) ;
#10 = CARTESIAN_POINT ( 'NONE',  ( -12.50000000000000000, 1.530808498934191500E-015, 0.5000000000000000000 ) ) ;
#11 = PERSON_AND_ORGANIZATION_ROLE ( 'creator' ) ;
#12 = DIRECTION ( 'NONE',  ( -0.0000000000000000000, -0.0000000000000000000, 1.000000000000000000 ) ) ;
#13 = CYLINDRICAL_SURFACE ( 'NONE', #156, 12.50000000000000000 ) ;
#14 = EDGE_CURVE ( 'NONE', #9, #128, #146, .T. ) ;
#15 = ORIENTED_EDGE ( 'NONE', *, *, #136, .F. ) ;
#16 = CC_DESIGN_PERSON_AND_ORGANIZATION_ASSIGNMENT ( #105, #11, ( #79 ) ) ;
#17 = PERSON_AND_ORGANIZATION ( #80, #8 ) ;
#18 = CARTESIAN_POINT ( 'NONE',  ( 0.0000000000000000000, 0.0000000000000000000, 0.5000000000000000000 ) ) ;
#19 = ADVANCED_FACE ( 'NONE', ( #106 ), #52, .T. ) ;
#20 = CALENDAR_DATE ( 2017, 10, 4 ) ;
#21 = AXIS2_PLACEMENT_3D ( 'NONE', #168, #12, #35 ) ;
#22 = LOCAL_TIME ( 13, 29, 35.00000000000000000, #144 ) ;
#23 = AXIS2_PLACEMENT_3D ( 'NONE', #18, #51, #42 ) ;
#24 = APPROVAL_DATE_TIME ( #78, #76 ) ;
#25 = ADVANCED_BREP_SHAPE_REPRESENTATION ( 'Web Model 43817_43736', ( #119, #90 ), #166 ) ;
#26 = DIRECTION ( 'NONE',  ( -0.0000000000000000000, -0.0000000000000000000, 1.000000000000000000 ) ) ;
#27 = PERSON_AND_ORGANIZATION_ROLE ( 'design_supplier' ) ;
#28 = DIRECTION ( 'NONE',  ( 1.000000000000000000, 0.0000000000000000000, 0.0000000000000000000 ) ) ;
#29 = FACE_OUTER_BOUND ( 'NONE', #107, .T. ) ;
#30 = AXIS2_PLACEMENT_3D ( 'NONE', #2, #75, #86 ) ;
#31 = ADVANCED_FACE ( 'NONE', ( #29 ), #13, .T. ) ;
#32 = LOCAL_TIME ( 13, 29, 35.00000000000000000, #60 ) ;
#33 = LINE ( 'NONE', #83, #94 ) ;
#34 = APPROVAL_ROLE ( '' ) ;
#35 = DIRECTION ( 'NONE',  ( 1.000000000000000000, 0.0000000000000000000, 0.0000000000000000000 ) ) ;
#36 = DATE_AND_TIME ( #66, #39 ) ;
#37 = MECHANICAL_CONTEXT ( 'NONE', #133, 'mechanical' ) ;
#38 = EDGE_LOOP ( 'NONE', ( #49, #154 ) ) ;
#39 = LOCAL_TIME ( 13, 29, 35.00000000000000000, #70 ) ;
#40 = CARTESIAN_POINT ( 'NONE',  ( 12.50000000000000000, 0.0000000000000000000, 0.5000000000000000000 ) ) ;
#41 = PERSON_AND_ORGANIZATION ( #80, #8 ) ;
#42 = DIRECTION ( 'NONE',  ( -1.000000000000000000, 0.0000000000000000000, -0.0000000000000000000 ) ) ;
#43 = CALENDAR_DATE ( 2017, 10, 4 ) ;
#44 = DATE_TIME_ROLE ( 'creation_date' ) ;
#45 = CALENDAR_DATE ( 2017, 10, 4 ) ;
#46 = CARTESIAN_POINT ( 'NONE',  ( 12.50000000000000000, 0.0000000000000000000, -0.5000000000000000000 ) ) ;
#47 = SECURITY_CLASSIFICATION_LEVEL ( 'unclassified' ) ;
#48 = EDGE_CURVE ( 'NONE', #157, #103, #33, .T. ) ;
#49 = ORIENTED_EDGE ( 'NONE', *, *, #53, .T. ) ;
#50 = ORIENTED_EDGE ( 'NONE', *, *, #53, .F. ) ;
#51 = DIRECTION ( 'NONE',  ( 0.0000000000000000000, 0.0000000000000000000, -1.000000000000000000 ) ) ;
#52 = CYLINDRICAL_SURFACE ( 'NONE', #21, 12.50000000000000000 ) ;
#53 = EDGE_CURVE ( 'NONE', #128, #103, #139, .T. ) ;
#54 = LOCAL_TIME ( 13, 29, 35.00000000000000000, #175 ) ;
#55 = PLANE ( 'NONE',  #23 ) ;
#56 = PERSON_AND_ORGANIZATION_ROLE ( 'classification_officer' ) ;
#57 = ORIENTED_EDGE ( 'NONE', *, *, #136, .T. ) ;
#58 = PRODUCT_DEFINITION ( 'UNKNOWN', '', #79, #118 ) ;
#59 = PERSON_AND_ORGANIZATION_ROLE ( 'creator' ) ;
#60 = COORDINATED_UNIVERSAL_TIME_OFFSET ( 5, 0, .BEHIND. ) ;
#61 = PERSON_AND_ORGANIZATION ( #80, #8 ) ;
#62 = ORIENTED_EDGE ( 'NONE', *, *, #14, .F. ) ;
#63 = APPROVAL_PERSON_ORGANIZATION ( #61, #121, #108 ) ;
#64 = EDGE_CURVE ( 'NONE', #103, #128, #143, .T. ) ;
#65 = DIRECTION ( 'NONE',  ( -0.0000000000000000000, -0.0000000000000000000, 1.000000000000000000 ) ) ;
#66 = CALENDAR_DATE ( 2017, 10, 4 ) ;
#67 = APPROVAL_DATE_TIME ( #161, #121 ) ;
#68 = ADVANCED_FACE ( 'NONE', ( #110 ), #55, .F. ) ;
#69 = APPROVAL_DATE_TIME ( #160, #174 ) ;
#70 = COORDINATED_UNIVERSAL_TIME_OFFSET ( 5, 0, .BEHIND. ) ;
#71 = DIRECTION ( 'NONE',  ( 1.000000000000000000, 0.0000000000000000000, 0.0000000000000000000 ) ) ;
#72 = ORIENTED_EDGE ( 'NONE', *, *, #64, .F. ) ;
#73 = CARTESIAN_POINT ( 'NONE',  ( 0.0000000000000000000, 0.0000000000000000000, 0.5000000000000000000 ) ) ;
#74 = DATE_AND_TIME ( #20, #32 ) ;
#75 = DIRECTION ( 'NONE',  ( -0.0000000000000000000, -0.0000000000000000000, 1.000000000000000000 ) ) ;
#76 = APPROVAL ( #124, 'UNSPECIFIED' ) ;
#77 = PERSON_AND_ORGANIZATION ( #80, #8 ) ;
#78 = DATE_AND_TIME ( #145, #54 ) ;
#79 = PRODUCT_DEFINITION_FORMATION_WITH_SPECIFIED_SOURCE ( 'ANY', '', #100, .NOT_KNOWN. ) ;
#80 = PERSON ( 'UNSPECIFIED', 'UNSPECIFIED', 'UNSPECIFIED', ('UNSPECIFIED'), ('UNSPECIFIED'), ('UNSPECIFIED') ) ;
#81 = DIRECTION ( 'NONE',  ( -0.0000000000000000000, -0.0000000000000000000, 1.000000000000000000 ) ) ;
#82 = APPROVAL_STATUS ( 'not_yet_approved' ) ;
#83 = CARTESIAN_POINT ( 'NONE',  ( -12.50000000000000000, 1.530808498934191500E-015, 0.5000000000000000000 ) ) ;
#84 = AXIS2_PLACEMENT_3D ( 'NONE', #3, #88, #85 ) ;
#85 = DIRECTION ( 'NONE',  ( 1.000000000000000000, 0.0000000000000000000, 0.0000000000000000000 ) ) ;
#86 = DIRECTION ( 'NONE',  ( 1.000000000000000000, 0.0000000000000000000, 0.0000000000000000000 ) ) ;
#87 = APPROVAL_ROLE ( '' ) ;
#88 = DIRECTION ( 'NONE',  ( -0.0000000000000000000, -0.0000000000000000000, 1.000000000000000000 ) ) ;
#89 = APPROVAL_PERSON_ORGANIZATION ( #77, #174, #87 ) ;
#90 = AXIS2_PLACEMENT_3D ( 'NONE', #113, #114, #129 ) ;
#91 = CC_DESIGN_PERSON_AND_ORGANIZATION_ASSIGNMENT ( #41, #56, ( #147 ) ) ;
#92 = DIRECTION ( 'NONE',  ( -0.0000000000000000000, -0.0000000000000000000, 1.000000000000000000 ) ) ;
#93 =( NAMED_UNIT ( * ) PLANE_ANGLE_UNIT ( ) SI_UNIT ( $, .RADIAN. ) );
#94 = VECTOR ( 'NONE', #81, 1000.000000000000000 ) ;
#95 = APPROVAL_STATUS ( 'not_yet_approved' ) ;
#96 = ORIENTED_EDGE ( 'NONE', *, *, #123, .F. ) ;
#97 = CIRCLE ( 'NONE', #173, 12.50000000000000000 ) ;
#98 = CC_DESIGN_APPROVAL ( #174, ( #79 ) ) ;
#99 = CC_DESIGN_PERSON_AND_ORGANIZATION_ASSIGNMENT ( #116, #59, ( #58 ) ) ;
#100 = PRODUCT ( 'Web Model 43817_43736', 'Web Model 43817_43736', '', ( #37 ) ) ;
#101 = FACE_OUTER_BOUND ( 'NONE', #162, .T. ) ;
#102 = UNCERTAINTY_MEASURE_WITH_UNIT (LENGTH_MEASURE( 1.000000000000000100E-005 ), #115, 'distance_accuracy_value', 'NONE');
#103 = VERTEX_POINT ( 'NONE', #10 ) ;
#104 = APPLICATION_PROTOCOL_DEFINITION ( 'international standard', 'config_control_design', 1994, #133 ) ;
#105 = PERSON_AND_ORGANIZATION ( #80, #8 ) ;
#106 = FACE_OUTER_BOUND ( 'NONE', #170, .T. ) ;
#107 = EDGE_LOOP ( 'NONE', ( #159, #5, #152, #72 ) ) ;
#108 = APPROVAL_ROLE ( '' ) ;
#109 =( NAMED_UNIT ( * ) SI_UNIT ( $, .STERADIAN. ) SOLID_ANGLE_UNIT ( ) );
#110 = FACE_OUTER_BOUND ( 'NONE', #38, .T. ) ;
#111 = DIRECTION ( 'NONE',  ( 1.000000000000000000, 0.0000000000000000000, 0.0000000000000000000 ) ) ;
#112 = APPLICATION_PROTOCOL_DEFINITION ( 'international standard', 'config_control_design', 1994, #130 ) ;
#113 = CARTESIAN_POINT ( 'NONE',  ( 0.0000000000000000000, 0.0000000000000000000, 0.0000000000000000000 ) ) ;
#114 = DIRECTION ( 'NONE',  ( 0.0000000000000000000, 0.0000000000000000000, 1.000000000000000000 ) ) ;
#115 =( LENGTH_UNIT ( ) NAMED_UNIT ( * ) SI_UNIT ( .MILLI., .METRE. ) );
#116 = PERSON_AND_ORGANIZATION ( #80, #8 ) ;
#117 = CC_DESIGN_APPROVAL ( #121, ( #147 ) ) ;
#118 = DESIGN_CONTEXT ( 'detailed design', #130, 'design' ) ;
#119 = MANIFOLD_SOLID_BREP ( 'Revolve2', #122 ) ;
#120 = ADVANCED_FACE ( 'NONE', ( #101 ), #151, .F. ) ;
#121 = APPROVAL ( #95, 'UNSPECIFIED' ) ;
#122 = CLOSED_SHELL ( 'NONE', ( #19, #68, #31, #120 ) ) ;
#123 = EDGE_CURVE ( 'NONE', #157, #9, #97, .T. ) ;
#124 = APPROVAL_STATUS ( 'not_yet_approved' ) ;
#125 = CARTESIAN_POINT ( 'NONE',  ( 0.0000000000000000000, 0.0000000000000000000, -0.5000000000000000000 ) ) ;
#126 = PRODUCT_DEFINITION_SHAPE ( 'NONE', 'NONE',  #58 ) ;
#127 = ORIENTED_EDGE ( 'NONE', *, *, #48, .T. ) ;
#128 = VERTEX_POINT ( 'NONE', #131 ) ;
#129 = DIRECTION ( 'NONE',  ( 1.000000000000000000, 0.0000000000000000000, 0.0000000000000000000 ) ) ;
#130 = APPLICATION_CONTEXT ( 'configuration controlled 3d designs of mechanical parts and assemblies' ) ;
#131 = CARTESIAN_POINT ( 'NONE',  ( 12.50000000000000000, 0.0000000000000000000, 0.5000000000000000000 ) ) ;
#132 = PRODUCT_RELATED_PRODUCT_CATEGORY ( 'detail', '', ( #100 ) ) ;
#133 = APPLICATION_CONTEXT ( 'configuration controlled 3d designs of mechanical parts and assemblies' ) ;
#134 = SHAPE_DEFINITION_REPRESENTATION ( #126, #25 ) ;
#135 = DIRECTION ( 'NONE',  ( 1.000000000000000000, 0.0000000000000000000, 0.0000000000000000000 ) ) ;
#136 = EDGE_CURVE ( 'NONE', #9, #157, #6, .T. ) ;
#137 = DIRECTION ( 'NONE',  ( -0.0000000000000000000, -0.0000000000000000000, 1.000000000000000000 ) ) ;
#138 = PERSON_AND_ORGANIZATION_ROLE ( 'design_owner' ) ;
#139 = CIRCLE ( 'NONE', #163, 12.50000000000000000 ) ;
#140 = CC_DESIGN_APPROVAL ( #76, ( #58 ) ) ;
#141 = COORDINATED_UNIVERSAL_TIME_OFFSET ( 5, 0, .BEHIND. ) ;
#142 = LOCAL_TIME ( 13, 29, 35.00000000000000000, #141 ) ;
#143 = CIRCLE ( 'NONE', #30, 12.50000000000000000 ) ;
#144 = COORDINATED_UNIVERSAL_TIME_OFFSET ( 5, 0, .BEHIND. ) ;
#145 = CALENDAR_DATE ( 2017, 10, 4 ) ;
#146 = LINE ( 'NONE', #40, #165 ) ;
#147 = SECURITY_CLASSIFICATION ( '', '', #47 ) ;
#148 = PERSON_AND_ORGANIZATION ( #80, #8 ) ;
#149 = APPROVAL_PERSON_ORGANIZATION ( #148, #76, #34 ) ;
#150 = CC_DESIGN_PERSON_AND_ORGANIZATION_ASSIGNMENT ( #167, #27, ( #79 ) ) ;
#151 = PLANE ( 'NONE',  #4 ) ;
#152 = ORIENTED_EDGE ( 'NONE', *, *, #14, .T. ) ;
#153 = DATE_TIME_ROLE ( 'classification_date' ) ;
#154 = ORIENTED_EDGE ( 'NONE', *, *, #64, .T. ) ;
#155 = CC_DESIGN_DATE_AND_TIME_ASSIGNMENT ( #74, #44, ( #58 ) ) ;
#156 = AXIS2_PLACEMENT_3D ( 'NONE', #73, #65, #28 ) ;
#157 = VERTEX_POINT ( 'NONE', #158 ) ;
#158 = CARTESIAN_POINT ( 'NONE',  ( -12.50000000000000000, 1.530808498934191500E-015, -0.5000000000000000000 ) ) ;
#159 = ORIENTED_EDGE ( 'NONE', *, *, #48, .F. ) ;
#160 = DATE_AND_TIME ( #43, #142 ) ;
#161 = DATE_AND_TIME ( #45, #22 ) ;
#162 = EDGE_LOOP ( 'NONE', ( #15, #96 ) ) ;
#163 = AXIS2_PLACEMENT_3D ( 'NONE', #1, #92, #71 ) ;
#164 = DIRECTION ( 'NONE',  ( 0.0000000000000000000, -0.0000000000000000000, 1.000000000000000000 ) ) ;
#165 = VECTOR ( 'NONE', #26, 1000.000000000000000 ) ;
#166 =( GEOMETRIC_REPRESENTATION_CONTEXT ( 3 ) GLOBAL_UNCERTAINTY_ASSIGNED_CONTEXT ( ( #102 ) ) GLOBAL_UNIT_ASSIGNED_CONTEXT ( ( #115, #93, #109 ) ) REPRESENTATION_CONTEXT ( 'NONE', 'WORKASPACE' ) );
#167 = PERSON_AND_ORGANIZATION ( #80, #8 ) ;
#168 = CARTESIAN_POINT ( 'NONE',  ( 0.0000000000000000000, 0.0000000000000000000, 0.5000000000000000000 ) ) ;
#169 = CC_DESIGN_SECURITY_CLASSIFICATION ( #147, ( #79 ) ) ;
#170 = EDGE_LOOP ( 'NONE', ( #57, #127, #50, #62 ) ) ;
#171 = CC_DESIGN_PERSON_AND_ORGANIZATION_ASSIGNMENT ( #17, #138, ( #100 ) ) ;
#172 = CC_DESIGN_DATE_AND_TIME_ASSIGNMENT ( #36, #153, ( #147 ) ) ;
#173 = AXIS2_PLACEMENT_3D ( 'NONE', #125, #137, #111 ) ;
#174 = APPROVAL ( #82, 'UNSPECIFIED' ) ;
#175 = COORDINATED_UNIVERSAL_TIME_OFFSET ( 5, 0, .BEHIND. ) ;
ENDSEC;
END-ISO-10303-21;
