ISO-10303-21;
HEADER;
FILE_DESCRIPTION (( 'STEP AP203' ),
    '1' );
FILE_NAME ('Web Model 47939.STEP',
    '2017-01-31T15:20:58',
    ( '' ),
    ( '' ),
    'SwSTEP 2.0',
    'SolidWorks 2016',
    '' );
FILE_SCHEMA (( 'CONFIG_CONTROL_DESIGN' ));
ENDSEC;

DATA;
#1 = LOCAL_TIME ( 10, 20, 58.00000000000000000, #2 ) ;
#2 = COORDINATED_UNIVERSAL_TIME_OFFSET ( 5, 0, .BEHIND. ) ;
#3 = ORIENTED_EDGE ( 'NONE', *, *, #49, .F. ) ;
#4 = VECTOR ( 'NONE', #100, 1000.000000000000000 ) ;
#5 = CALENDAR_DATE ( 2017, 31, 1 ) ;
#6 = CARTESIAN_POINT ( 'NONE',  ( 0.0000000000000000000, 0.0000000000000000000, 0.0000000000000000000 ) ) ;
#7 = DIRECTION ( 'NONE',  ( 1.000000000000000000, 0.0000000000000000000, 0.0000000000000000000 ) ) ;
#8 = APPROVAL_STATUS ( 'not_yet_approved' ) ;
#9 = EDGE_LOOP ( 'NONE', ( #88, #140, #165, #75 ) ) ;
#10 = PERSON_AND_ORGANIZATION_ROLE ( 'classification_officer' ) ;
#11 = COORDINATED_UNIVERSAL_TIME_OFFSET ( 5, 0, .BEHIND. ) ;
#12 = CARTESIAN_POINT ( 'NONE',  ( 25.00000000000000000, 3.061616997868383000E-015, 3.000000000000000000 ) ) ;
#13 = AXIS2_PLACEMENT_3D ( 'NONE', #110, #121, #101 ) ;
#14 = EDGE_LOOP ( 'NONE', ( #152, #127 ) ) ;
#15 = APPROVAL_DATE_TIME ( #63, #107 ) ;
#16 = COORDINATED_UNIVERSAL_TIME_OFFSET ( 5, 0, .BEHIND. ) ;
#17 = ADVANCED_FACE ( 'NONE', ( #46 ), #65, .T. ) ;
#18 = LOCAL_TIME ( 10, 20, 58.00000000000000000, #16 ) ;
#19 = VERTEX_POINT ( 'NONE', #25 ) ;
#20 = DIRECTION ( 'NONE',  ( -0.0000000000000000000, -0.0000000000000000000, -1.000000000000000000 ) ) ;
#21 = LINE ( 'NONE', #80, #48 ) ;
#22 = APPLICATION_PROTOCOL_DEFINITION ( 'international standard', 'config_control_design', 1994, #76 ) ;
#23 = APPROVAL_ROLE ( '' ) ;
#24 = APPROVAL_PERSON_ORGANIZATION ( #130, #44, #23 ) ;
#25 = CARTESIAN_POINT ( 'NONE',  ( -25.00000000000000000, 0.0000000000000000000, 3.000000000000000000 ) ) ;
#26 = CC_DESIGN_APPROVAL ( #107, ( #74 ) ) ;
#27 = DIRECTION ( 'NONE',  ( 1.000000000000000000, 0.0000000000000000000, 0.0000000000000000000 ) ) ;
#28 = AXIS2_PLACEMENT_3D ( 'NONE', #136, #20, #143 ) ;
#29 = CIRCLE ( 'NONE', #144, 25.00000000000000000 ) ;
#30 = CARTESIAN_POINT ( 'NONE',  ( -25.00000000000000000, 0.0000000000000000000, 3.000000000000000000 ) ) ;
#31 = AXIS2_PLACEMENT_3D ( 'NONE', #138, #41, #160 ) ;
#32 = LOCAL_TIME ( 10, 20, 58.00000000000000000, #106 ) ;
#33 = VERTEX_POINT ( 'NONE', #12 ) ;
#34 =( NAMED_UNIT ( * ) PLANE_ANGLE_UNIT ( ) SI_UNIT ( $, .RADIAN. ) );
#35 = PRODUCT_DEFINITION_FORMATION_WITH_SPECIFIED_SOURCE ( 'ANY', '', #167, .NOT_KNOWN. ) ;
#36 = CYLINDRICAL_SURFACE ( 'NONE', #28, 25.00000000000000000 ) ;
#37 = MECHANICAL_CONTEXT ( 'NONE', #76, 'mechanical' ) ;
#38 = CC_DESIGN_DATE_AND_TIME_ASSIGNMENT ( #98, #95, ( #72 ) ) ;
#39 = DIRECTION ( 'NONE',  ( 1.000000000000000000, 0.0000000000000000000, -0.0000000000000000000 ) ) ;
#40 = PERSON_AND_ORGANIZATION_ROLE ( 'creator' ) ;
#41 = DIRECTION ( 'NONE',  ( 0.0000000000000000000, 0.0000000000000000000, 1.000000000000000000 ) ) ;
#42 = DIRECTION ( 'NONE',  ( 1.000000000000000000, 0.0000000000000000000, 0.0000000000000000000 ) ) ;
#43 = AXIS2_PLACEMENT_3D ( 'NONE', #120, #149, #42 ) ;
#44 = APPROVAL ( #8, 'UNSPECIFIED' ) ;
#45 = EDGE_CURVE ( 'NONE', #19, #33, #29, .T. ) ;
#46 = FACE_OUTER_BOUND ( 'NONE', #117, .T. ) ;
#47 = VERTEX_POINT ( 'NONE', #172 ) ;
#48 = VECTOR ( 'NONE', #173, 1000.000000000000000 ) ;
#49 = EDGE_CURVE ( 'NONE', #33, #134, #21, .T. ) ;
#50 = ORIENTED_EDGE ( 'NONE', *, *, #82, .T. ) ;
#51 = CALENDAR_DATE ( 2017, 31, 1 ) ;
#52 = PERSON_AND_ORGANIZATION ( #132, #114 ) ;
#53 = CARTESIAN_POINT ( 'NONE',  ( 0.0000000000000000000, 0.0000000000000000000, 3.000000000000000000 ) ) ;
#54 = COORDINATED_UNIVERSAL_TIME_OFFSET ( 5, 0, .BEHIND. ) ;
#55 = PERSON_AND_ORGANIZATION ( #132, #114 ) ;
#56 = CC_DESIGN_APPROVAL ( #90, ( #72 ) ) ;
#57 = CALENDAR_DATE ( 2017, 31, 1 ) ;
#58 = ORIENTED_EDGE ( 'NONE', *, *, #67, .T. ) ;
#59 = MANIFOLD_SOLID_BREP ( 'Extrude1', #122 ) ;
#60 = FACE_OUTER_BOUND ( 'NONE', #156, .T. ) ;
#61 = LOCAL_TIME ( 10, 20, 58.00000000000000000, #54 ) ;
#62 = CC_DESIGN_APPROVAL ( #44, ( #35 ) ) ;
#63 = DATE_AND_TIME ( #51, #32 ) ;
#64 = EDGE_CURVE ( 'NONE', #33, #19, #104, .T. ) ;
#65 = CYLINDRICAL_SURFACE ( 'NONE', #139, 25.00000000000000000 ) ;
#66 = DIRECTION ( 'NONE',  ( 0.0000000000000000000, 0.0000000000000000000, 1.000000000000000000 ) ) ;
#67 = EDGE_CURVE ( 'NONE', #19, #47, #116, .T. ) ;
#68 = DATE_TIME_ROLE ( 'classification_date' ) ;
#69 = CARTESIAN_POINT ( 'NONE',  ( 0.0000000000000000000, 0.0000000000000000000, 3.000000000000000000 ) ) ;
#70 = CC_DESIGN_PERSON_AND_ORGANIZATION_ASSIGNMENT ( #87, #171, ( #35 ) ) ;
#71 = SHAPE_DEFINITION_REPRESENTATION ( #118, #85 ) ;
#72 = PRODUCT_DEFINITION ( 'UNKNOWN', '', #35, #137 ) ;
#73 = CIRCLE ( 'NONE', #43, 25.00000000000000000 ) ;
#74 = SECURITY_CLASSIFICATION ( '', '', #99 ) ;
#75 = ORIENTED_EDGE ( 'NONE', *, *, #67, .F. ) ;
#76 = APPLICATION_CONTEXT ( 'configuration controlled 3d designs of mechanical parts and assemblies' ) ;
#77 = APPROVAL_PERSON_ORGANIZATION ( #55, #90, #133 ) ;
#78 = ORIENTED_EDGE ( 'NONE', *, *, #64, .T. ) ;
#79 = APPROVAL_STATUS ( 'not_yet_approved' ) ;
#80 = CARTESIAN_POINT ( 'NONE',  ( 25.00000000000000000, 3.061616997868383000E-015, 3.000000000000000000 ) ) ;
#81 = DIRECTION ( 'NONE',  ( -1.000000000000000000, 0.0000000000000000000, 0.0000000000000000000 ) ) ;
#82 = EDGE_CURVE ( 'NONE', #47, #134, #73, .T. ) ;
#83 = CARTESIAN_POINT ( 'NONE',  ( 25.00000000000000000, 3.061616997868383000E-015, 0.0000000000000000000 ) ) ;
#84 = FACE_OUTER_BOUND ( 'NONE', #14, .T. ) ;
#85 = ADVANCED_BREP_SHAPE_REPRESENTATION ( 'Web Model 47939', ( #59, #158 ), #96 ) ;
#86 = PRODUCT_RELATED_PRODUCT_CATEGORY ( 'detail', '', ( #167 ) ) ;
#87 = PERSON_AND_ORGANIZATION ( #132, #114 ) ;
#88 = ORIENTED_EDGE ( 'NONE', *, *, #64, .F. ) ;
#89 = PERSON_AND_ORGANIZATION ( #132, #114 ) ;
#90 = APPROVAL ( #79, 'UNSPECIFIED' ) ;
#91 = ADVANCED_FACE ( 'NONE', ( #84 ), #123, .F. ) ;
#92 = UNCERTAINTY_MEASURE_WITH_UNIT (LENGTH_MEASURE( 1.000000000000000100E-005 ), #112, 'distance_accuracy_value', 'NONE');
#93 = APPROVAL_DATE_TIME ( #119, #44 ) ;
#94 = CARTESIAN_POINT ( 'NONE',  ( 0.0000000000000000000, 0.0000000000000000000, 0.0000000000000000000 ) ) ;
#95 = DATE_TIME_ROLE ( 'creation_date' ) ;
#96 =( GEOMETRIC_REPRESENTATION_CONTEXT ( 3 ) GLOBAL_UNCERTAINTY_ASSIGNED_CONTEXT ( ( #92 ) ) GLOBAL_UNIT_ASSIGNED_CONTEXT ( ( #112, #34, #131 ) ) REPRESENTATION_CONTEXT ( 'NONE', 'WORKASPACE' ) );
#97 = APPLICATION_CONTEXT ( 'configuration controlled 3d designs of mechanical parts and assemblies' ) ;
#98 = DATE_AND_TIME ( #57, #161 ) ;
#99 = SECURITY_CLASSIFICATION_LEVEL ( 'unclassified' ) ;
#100 = DIRECTION ( 'NONE',  ( -0.0000000000000000000, -0.0000000000000000000, -1.000000000000000000 ) ) ;
#101 = DIRECTION ( 'NONE',  ( 1.000000000000000000, 0.0000000000000000000, 0.0000000000000000000 ) ) ;
#102 = CC_DESIGN_PERSON_AND_ORGANIZATION_ASSIGNMENT ( #129, #135, ( #167 ) ) ;
#103 = DIRECTION ( 'NONE',  ( 0.0000000000000000000, 0.0000000000000000000, 1.000000000000000000 ) ) ;
#104 = CIRCLE ( 'NONE', #13, 25.00000000000000000 ) ;
#105 = ORIENTED_EDGE ( 'NONE', *, *, #45, .F. ) ;
#106 = COORDINATED_UNIVERSAL_TIME_OFFSET ( 5, 0, .BEHIND. ) ;
#107 = APPROVAL ( #166, 'UNSPECIFIED' ) ;
#108 = ADVANCED_FACE ( 'NONE', ( #60 ), #147, .T. ) ;
#109 = DIRECTION ( 'NONE',  ( 1.000000000000000000, 0.0000000000000000000, 0.0000000000000000000 ) ) ;
#110 = CARTESIAN_POINT ( 'NONE',  ( 0.0000000000000000000, 0.0000000000000000000, 3.000000000000000000 ) ) ;
#111 = DATE_AND_TIME ( #142, #1 ) ;
#112 =( LENGTH_UNIT ( ) NAMED_UNIT ( * ) SI_UNIT ( .MILLI., .METRE. ) );
#113 = APPROVAL_ROLE ( '' ) ;
#114 = ORGANIZATION ( 'UNSPECIFIED', 'UNSPECIFIED', '' ) ;
#115 = CC_DESIGN_DATE_AND_TIME_ASSIGNMENT ( #141, #68, ( #74 ) ) ;
#116 = LINE ( 'NONE', #30, #4 ) ;
#117 = EDGE_LOOP ( 'NONE', ( #3, #105, #58, #50 ) ) ;
#118 = PRODUCT_DEFINITION_SHAPE ( 'NONE', 'NONE',  #72 ) ;
#119 = DATE_AND_TIME ( #126, #18 ) ;
#120 = CARTESIAN_POINT ( 'NONE',  ( 0.0000000000000000000, 0.0000000000000000000, 0.0000000000000000000 ) ) ;
#121 = DIRECTION ( 'NONE',  ( 0.0000000000000000000, 0.0000000000000000000, 1.000000000000000000 ) ) ;
#122 = CLOSED_SHELL ( 'NONE', ( #153, #17, #108, #91 ) ) ;
#123 = PLANE ( 'NONE',  #31 ) ;
#124 = APPROVAL_PERSON_ORGANIZATION ( #89, #107, #113 ) ;
#125 = CC_DESIGN_PERSON_AND_ORGANIZATION_ASSIGNMENT ( #52, #40, ( #35 ) ) ;
#126 = CALENDAR_DATE ( 2017, 31, 1 ) ;
#127 = ORIENTED_EDGE ( 'NONE', *, *, #164, .F. ) ;
#128 = CC_DESIGN_SECURITY_CLASSIFICATION ( #74, ( #35 ) ) ;
#129 = PERSON_AND_ORGANIZATION ( #132, #114 ) ;
#130 = PERSON_AND_ORGANIZATION ( #132, #114 ) ;
#131 =( NAMED_UNIT ( * ) SI_UNIT ( $, .STERADIAN. ) SOLID_ANGLE_UNIT ( ) );
#132 = PERSON ( 'UNSPECIFIED', 'UNSPECIFIED', 'UNSPECIFIED', ('UNSPECIFIED'), ('UNSPECIFIED'), ('UNSPECIFIED') ) ;
#133 = APPROVAL_ROLE ( '' ) ;
#134 = VERTEX_POINT ( 'NONE', #83 ) ;
#135 = PERSON_AND_ORGANIZATION_ROLE ( 'design_owner' ) ;
#136 = CARTESIAN_POINT ( 'NONE',  ( 0.0000000000000000000, 0.0000000000000000000, 3.000000000000000000 ) ) ;
#137 = DESIGN_CONTEXT ( 'detailed design', #97, 'design' ) ;
#138 = CARTESIAN_POINT ( 'NONE',  ( 0.0000000000000000000, 0.0000000000000000000, 0.0000000000000000000 ) ) ;
#139 = AXIS2_PLACEMENT_3D ( 'NONE', #69, #174, #81 ) ;
#140 = ORIENTED_EDGE ( 'NONE', *, *, #49, .T. ) ;
#141 = DATE_AND_TIME ( #5, #61 ) ;
#142 = CALENDAR_DATE ( 2017, 31, 1 ) ;
#143 = DIRECTION ( 'NONE',  ( -1.000000000000000000, 0.0000000000000000000, 0.0000000000000000000 ) ) ;
#144 = AXIS2_PLACEMENT_3D ( 'NONE', #53, #157, #27 ) ;
#145 = CC_DESIGN_PERSON_AND_ORGANIZATION_ASSIGNMENT ( #151, #169, ( #72 ) ) ;
#146 = APPLICATION_PROTOCOL_DEFINITION ( 'international standard', 'config_control_design', 1994, #97 ) ;
#147 = PLANE ( 'NONE',  #150 ) ;
#148 = CIRCLE ( 'NONE', #159, 25.00000000000000000 ) ;
#149 = DIRECTION ( 'NONE',  ( 0.0000000000000000000, 0.0000000000000000000, 1.000000000000000000 ) ) ;
#150 = AXIS2_PLACEMENT_3D ( 'NONE', #175, #103, #39 ) ;
#151 = PERSON_AND_ORGANIZATION ( #132, #114 ) ;
#152 = ORIENTED_EDGE ( 'NONE', *, *, #82, .F. ) ;
#153 = ADVANCED_FACE ( 'NONE', ( #170 ), #36, .T. ) ;
#154 = PERSON_AND_ORGANIZATION ( #132, #114 ) ;
#155 = APPROVAL_DATE_TIME ( #111, #90 ) ;
#156 = EDGE_LOOP ( 'NONE', ( #162, #78 ) ) ;
#157 = DIRECTION ( 'NONE',  ( 0.0000000000000000000, 0.0000000000000000000, 1.000000000000000000 ) ) ;
#158 = AXIS2_PLACEMENT_3D ( 'NONE', #6, #168, #109 ) ;
#159 = AXIS2_PLACEMENT_3D ( 'NONE', #94, #66, #7 ) ;
#160 = DIRECTION ( 'NONE',  ( 1.000000000000000000, 0.0000000000000000000, -0.0000000000000000000 ) ) ;
#161 = LOCAL_TIME ( 10, 20, 58.00000000000000000, #11 ) ;
#162 = ORIENTED_EDGE ( 'NONE', *, *, #45, .T. ) ;
#163 = CC_DESIGN_PERSON_AND_ORGANIZATION_ASSIGNMENT ( #154, #10, ( #74 ) ) ;
#164 = EDGE_CURVE ( 'NONE', #134, #47, #148, .T. ) ;
#165 = ORIENTED_EDGE ( 'NONE', *, *, #164, .T. ) ;
#166 = APPROVAL_STATUS ( 'not_yet_approved' ) ;
#167 = PRODUCT ( 'Web Model 47939', 'Web Model 47939', '', ( #37 ) ) ;
#168 = DIRECTION ( 'NONE',  ( 0.0000000000000000000, 0.0000000000000000000, 1.000000000000000000 ) ) ;
#169 = PERSON_AND_ORGANIZATION_ROLE ( 'creator' ) ;
#170 = FACE_OUTER_BOUND ( 'NONE', #9, .T. ) ;
#171 = PERSON_AND_ORGANIZATION_ROLE ( 'design_supplier' ) ;
#172 = CARTESIAN_POINT ( 'NONE',  ( -25.00000000000000000, 0.0000000000000000000, 0.0000000000000000000 ) ) ;
#173 = DIRECTION ( 'NONE',  ( -0.0000000000000000000, -0.0000000000000000000, -1.000000000000000000 ) ) ;
#174 = DIRECTION ( 'NONE',  ( -0.0000000000000000000, -0.0000000000000000000, -1.000000000000000000 ) ) ;
#175 = CARTESIAN_POINT ( 'NONE',  ( 0.0000000000000000000, 0.0000000000000000000, 3.000000000000000000 ) ) ;
ENDSEC;
END-ISO-10303-21;
