ISO-10303-21;
HEADER;
FILE_DESCRIPTION (( 'STEP AP203' ),
    '1' );
FILE_NAME ('Web Model 55143_55143.step',
    '2018-04-17T20:03:23',
    ( '' ),
    ( '' ),
    'SwSTEP 2.0',
    'SolidWorks 2016',
    '' );
FILE_SCHEMA (( 'CONFIG_CONTROL_DESIGN' ));
ENDSEC;

DATA;
#1 = CC_DESIGN_PERSON_AND_ORGANIZATION_ASSIGNMENT ( #109, #94, ( #132 ) ) ;
#2 = EDGE_CURVE ( 'NONE', #105, #101, #26, .T. ) ;
#3 = CARTESIAN_POINT ( 'NONE',  ( 2.500000000000000000, -37.50000000000000000, 24.99999999999999300 ) ) ;
#4 = ORIENTED_EDGE ( 'NONE', *, *, #77, .F. ) ;
#5 = DIRECTION ( 'NONE',  ( 0.0000000000000000000, 2.775557561562891400E-016, -1.000000000000000000 ) ) ;
#6 = PLANE ( 'NONE',  #30 ) ;
#7 = DATE_AND_TIME ( #231, #46 ) ;
#8 =( NAMED_UNIT ( * ) SI_UNIT ( $, .STERADIAN. ) SOLID_ANGLE_UNIT ( ) );
#9 = APPROVAL_STATUS ( 'not_yet_approved' ) ;
#10 = CARTESIAN_POINT ( 'NONE',  ( 0.0000000000000000000, 0.0000000000000000000, 0.0000000000000000000 ) ) ;
#11 = LOCAL_TIME ( 16, 3, 23.00000000000000000, #237 ) ;
#12 = MANIFOLD_SOLID_BREP ( 'Boss-Extrude1', #20 ) ;
#13 = SECURITY_CLASSIFICATION ( '', '', #150 ) ;
#14 = LINE ( 'NONE', #130, #74 ) ;
#15 = AXIS2_PLACEMENT_3D ( 'NONE', #49, #133, #55 ) ;
#16 = VERTEX_POINT ( 'NONE', #205 ) ;
#17 = COORDINATED_UNIVERSAL_TIME_OFFSET ( 5, 0, .BEHIND. ) ;
#18 = CARTESIAN_POINT ( 'NONE',  ( -2.500000000000000000, 37.50000000000000000, -24.99999999999999300 ) ) ;
#19 = ORIENTED_EDGE ( 'NONE', *, *, #70, .T. ) ;
#20 = CLOSED_SHELL ( 'NONE', ( #170, #124, #185, #53, #62, #209 ) ) ;
#21 = CARTESIAN_POINT ( 'NONE',  ( -2.500000000000000000, -37.50000000000000000, -24.99999999999999300 ) ) ;
#22 = DIRECTION ( 'NONE',  ( -1.000000000000000000, -0.0000000000000000000, -0.0000000000000000000 ) ) ;
#23 = CC_DESIGN_DATE_AND_TIME_ASSIGNMENT ( #148, #167, ( #13 ) ) ;
#24 = PERSON_AND_ORGANIZATION ( #194, #225 ) ;
#25 = CARTESIAN_POINT ( 'NONE',  ( 2.500000000000000000, 37.49999999999998600, 25.00000000000000700 ) ) ;
#26 = LINE ( 'NONE', #25, #116 ) ;
#27 = APPROVAL_STATUS ( 'not_yet_approved' ) ;
#28 = DIRECTION ( 'NONE',  ( 0.0000000000000000000, 0.0000000000000000000, -1.000000000000000000 ) ) ;
#29 =( NAMED_UNIT ( * ) PLANE_ANGLE_UNIT ( ) SI_UNIT ( $, .RADIAN. ) );
#30 = AXIS2_PLACEMENT_3D ( 'NONE', #147, #48, #43 ) ;
#31 = EDGE_LOOP ( 'NONE', ( #113, #4, #131, #95 ) ) ;
#32 = DIRECTION ( 'NONE',  ( 0.0000000000000000000, 0.0000000000000000000, 1.000000000000000000 ) ) ;
#33 = APPLICATION_CONTEXT ( 'configuration controlled 3d designs of mechanical parts and assemblies' ) ;
#34 = LOCAL_TIME ( 16, 3, 23.00000000000000000, #183 ) ;
#35 = VECTOR ( 'NONE', #143, 1000.000000000000000 ) ;
#36 = CALENDAR_DATE ( 2018, 17, 4 ) ;
#37 = VECTOR ( 'NONE', #186, 1000.000000000000000 ) ;
#38 = APPROVAL ( #9, 'UNSPECIFIED' ) ;
#39 = VECTOR ( 'NONE', #64, 1000.000000000000000 ) ;
#40 = LINE ( 'NONE', #81, #217 ) ;
#41 = ORIENTED_EDGE ( 'NONE', *, *, #102, .F. ) ;
#42 = CC_DESIGN_DATE_AND_TIME_ASSIGNMENT ( #7, #84, ( #199 ) ) ;
#43 = DIRECTION ( 'NONE',  ( 0.0000000000000000000, 0.0000000000000000000, 1.000000000000000000 ) ) ;
#44 = PLANE ( 'NONE',  #144 ) ;
#45 = PLANE ( 'NONE',  #233 ) ;
#46 = LOCAL_TIME ( 16, 3, 23.00000000000000000, #88 ) ;
#47 = DIRECTION ( 'NONE',  ( -0.0000000000000000000, -1.000000000000000000, -1.850371707708594600E-016 ) ) ;
#48 = DIRECTION ( 'NONE',  ( -1.000000000000000000, 0.0000000000000000000, 0.0000000000000000000 ) ) ;
#49 = CARTESIAN_POINT ( 'NONE',  ( 2.500000000000000000, -37.50000000000000000, -24.99999999999999300 ) ) ;
#50 = EDGE_CURVE ( 'NONE', #54, #72, #40, .T. ) ;
#51 = FACE_OUTER_BOUND ( 'NONE', #59, .T. ) ;
#52 = PERSON_AND_ORGANIZATION_ROLE ( 'classification_officer' ) ;
#53 = ADVANCED_FACE ( 'NONE', ( #137 ), #45, .F. ) ;
#54 = VERTEX_POINT ( 'NONE', #108 ) ;
#55 = DIRECTION ( 'NONE',  ( 1.000000000000000000, 0.0000000000000000000, -0.0000000000000000000 ) ) ;
#56 = PERSON_AND_ORGANIZATION ( #194, #225 ) ;
#57 = EDGE_CURVE ( 'NONE', #54, #235, #100, .T. ) ;
#58 = ORIENTED_EDGE ( 'NONE', *, *, #102, .T. ) ;
#59 = EDGE_LOOP ( 'NONE', ( #232, #198, #215, #202 ) ) ;
#60 = CARTESIAN_POINT ( 'NONE',  ( -2.500000000000000000, -37.50000000000000000, 24.99999999999999300 ) ) ;
#61 = CARTESIAN_POINT ( 'NONE',  ( -2.500000000000000000, -37.50000000000000000, -24.99999999999999300 ) ) ;
#62 = ADVANCED_FACE ( 'NONE', ( #122 ), #6, .F. ) ;
#63 = CARTESIAN_POINT ( 'NONE',  ( -2.500000000000000000, 37.49999999999998600, 25.00000000000000700 ) ) ;
#64 = DIRECTION ( 'NONE',  ( 0.0000000000000000000, 0.0000000000000000000, -1.000000000000000000 ) ) ;
#65 = ORIENTED_EDGE ( 'NONE', *, *, #227, .F. ) ;
#66 = PERSON_AND_ORGANIZATION_ROLE ( 'creator' ) ;
#67 = VERTEX_POINT ( 'NONE', #18 ) ;
#68 = APPROVAL_ROLE ( '' ) ;
#69 = EDGE_CURVE ( 'NONE', #101, #195, #163, .T. ) ;
#70 = EDGE_CURVE ( 'NONE', #235, #67, #86, .T. ) ;
#71 = CARTESIAN_POINT ( 'NONE',  ( -2.500000000000000000, -37.50000000000000000, 24.99999999999999300 ) ) ;
#72 = VERTEX_POINT ( 'NONE', #21 ) ;
#73 = ORIENTED_EDGE ( 'NONE', *, *, #227, .T. ) ;
#74 = VECTOR ( 'NONE', #28, 1000.000000000000000 ) ;
#75 = CARTESIAN_POINT ( 'NONE',  ( 2.500000000000000000, 37.49999999999998600, 25.00000000000000700 ) ) ;
#76 = ORIENTED_EDGE ( 'NONE', *, *, #77, .T. ) ;
#77 = EDGE_CURVE ( 'NONE', #67, #101, #110, .T. ) ;
#78 = CARTESIAN_POINT ( 'NONE',  ( 2.500000000000000000, -37.50000000000000000, 24.99999999999999300 ) ) ;
#79 = CARTESIAN_POINT ( 'NONE',  ( 2.500000000000000000, 37.50000000000000000, -24.99999999999999300 ) ) ;
#80 = LOCAL_TIME ( 16, 3, 23.00000000000000000, #172 ) ;
#81 = CARTESIAN_POINT ( 'NONE',  ( 2.500000000000000000, -37.50000000000000000, -24.99999999999999300 ) ) ;
#82 = DIRECTION ( 'NONE',  ( 0.0000000000000000000, 1.850371707708594600E-016, -1.000000000000000000 ) ) ;
#83 = ORIENTED_EDGE ( 'NONE', *, *, #97, .T. ) ;
#84 = DATE_TIME_ROLE ( 'creation_date' ) ;
#85 = PERSON_AND_ORGANIZATION ( #194, #225 ) ;
#86 = LINE ( 'NONE', #79, #174 ) ;
#87 = EDGE_LOOP ( 'NONE', ( #76, #178, #41, #19 ) ) ;
#88 = COORDINATED_UNIVERSAL_TIME_OFFSET ( 5, 0, .BEHIND. ) ;
#89 = ORIENTED_EDGE ( 'NONE', *, *, #69, .T. ) ;
#90 = CARTESIAN_POINT ( 'NONE',  ( 2.500000000000000000, 37.49999999999998600, 25.00000000000000700 ) ) ;
#91 = DATE_AND_TIME ( #126, #11 ) ;
#92 = APPLICATION_PROTOCOL_DEFINITION ( 'international standard', 'config_control_design', 1994, #33 ) ;
#93 = APPROVAL_PERSON_ORGANIZATION ( #197, #38, #68 ) ;
#94 = PERSON_AND_ORGANIZATION_ROLE ( 'design_supplier' ) ;
#95 = ORIENTED_EDGE ( 'NONE', *, *, #219, .F. ) ;
#96 = APPLICATION_CONTEXT ( 'configuration controlled 3d designs of mechanical parts and assemblies' ) ;
#97 = EDGE_CURVE ( 'NONE', #105, #16, #169, .T. ) ;
#98 = EDGE_CURVE ( 'NONE', #16, #195, #223, .T. ) ;
#99 = PERSON_AND_ORGANIZATION ( #194, #225 ) ;
#100 = LINE ( 'NONE', #180, #37 ) ;
#101 = VERTEX_POINT ( 'NONE', #63 ) ;
#102 = EDGE_CURVE ( 'NONE', #235, #105, #212, .T. ) ;
#103 = CC_DESIGN_APPROVAL ( #120, ( #199 ) ) ;
#104 = LINE ( 'NONE', #61, #193 ) ;
#105 = VERTEX_POINT ( 'NONE', #75 ) ;
#106 = DIRECTION ( 'NONE',  ( -0.0000000000000000000, -1.000000000000000000, -1.850371707708594600E-016 ) ) ;
#107 = DIRECTION ( 'NONE',  ( 0.0000000000000000000, -0.0000000000000000000, 1.000000000000000000 ) ) ;
#108 = CARTESIAN_POINT ( 'NONE',  ( 2.500000000000000000, -37.50000000000000000, -24.99999999999999300 ) ) ;
#109 = PERSON_AND_ORGANIZATION ( #194, #225 ) ;
#110 = LINE ( 'NONE', #179, #201 ) ;
#111 = DIRECTION ( 'NONE',  ( 0.0000000000000000000, 1.000000000000000000, 1.850371707708594600E-016 ) ) ;
#112 = CC_DESIGN_PERSON_AND_ORGANIZATION_ASSIGNMENT ( #99, #187, ( #229 ) ) ;
#113 = ORIENTED_EDGE ( 'NONE', *, *, #69, .F. ) ;
#114 =( LENGTH_UNIT ( ) NAMED_UNIT ( * ) SI_UNIT ( .MILLI., .METRE. ) );
#115 = APPROVAL_DATE_TIME ( #159, #157 ) ;
#116 = VECTOR ( 'NONE', #145, 1000.000000000000000 ) ;
#117 = CC_DESIGN_PERSON_AND_ORGANIZATION_ASSIGNMENT ( #136, #52, ( #13 ) ) ;
#118 = ORIENTED_EDGE ( 'NONE', *, *, #98, .T. ) ;
#119 = DESIGN_CONTEXT ( 'detailed design', #33, 'design' ) ;
#120 = APPROVAL ( #224, 'UNSPECIFIED' ) ;
#121 = SHAPE_DEFINITION_REPRESENTATION ( #154, #204 ) ;
#122 = FACE_OUTER_BOUND ( 'NONE', #189, .T. ) ;
#123 = DIRECTION ( 'NONE',  ( -1.000000000000000000, -0.0000000000000000000, -0.0000000000000000000 ) ) ;
#124 = ADVANCED_FACE ( 'NONE', ( #207 ), #146, .F. ) ;
#125 = DIRECTION ( 'NONE',  ( -0.0000000000000000000, -2.775557561562891400E-016, 1.000000000000000000 ) ) ;
#126 = CALENDAR_DATE ( 2018, 17, 4 ) ;
#127 = DIRECTION ( 'NONE',  ( -0.0000000000000000000, -2.775557561562891400E-016, 1.000000000000000000 ) ) ;
#128 = CC_DESIGN_PERSON_AND_ORGANIZATION_ASSIGNMENT ( #56, #151, ( #199 ) ) ;
#129 = CARTESIAN_POINT ( 'NONE',  ( -2.500000000000000000, 0.0000000000000000000, 0.0000000000000000000 ) ) ;
#130 = CARTESIAN_POINT ( 'NONE',  ( 2.500000000000000000, -37.50000000000000000, 24.99999999999999300 ) ) ;
#131 = ORIENTED_EDGE ( 'NONE', *, *, #165, .F. ) ;
#132 = PRODUCT_DEFINITION_FORMATION_WITH_SPECIFIED_SOURCE ( 'ANY', '', #229, .NOT_KNOWN. ) ;
#133 = DIRECTION ( 'NONE',  ( 0.0000000000000000000, 0.0000000000000000000, 1.000000000000000000 ) ) ;
#134 = APPROVAL_DATE_TIME ( #161, #38 ) ;
#135 = APPROVAL_DATE_TIME ( #91, #120 ) ;
#136 = PERSON_AND_ORGANIZATION ( #194, #225 ) ;
#137 = FACE_OUTER_BOUND ( 'NONE', #87, .T. ) ;
#138 = ORIENTED_EDGE ( 'NONE', *, *, #98, .F. ) ;
#139 = APPROVAL_PERSON_ORGANIZATION ( #184, #120, #188 ) ;
#140 = CC_DESIGN_APPROVAL ( #38, ( #13 ) ) ;
#141 = CALENDAR_DATE ( 2018, 17, 4 ) ;
#142 = ORIENTED_EDGE ( 'NONE', *, *, #219, .T. ) ;
#143 = DIRECTION ( 'NONE',  ( -1.000000000000000000, -0.0000000000000000000, -0.0000000000000000000 ) ) ;
#144 = AXIS2_PLACEMENT_3D ( 'NONE', #3, #82, #111 ) ;
#145 = DIRECTION ( 'NONE',  ( -1.000000000000000000, -0.0000000000000000000, -0.0000000000000000000 ) ) ;
#146 = PLANE ( 'NONE',  #191 ) ;
#147 = CARTESIAN_POINT ( 'NONE',  ( 2.500000000000000000, 0.0000000000000000000, 0.0000000000000000000 ) ) ;
#148 = DATE_AND_TIME ( #141, #155 ) ;
#149 = CARTESIAN_POINT ( 'NONE',  ( -2.500000000000000000, -37.50000000000000000, 24.99999999999999300 ) ) ;
#150 = SECURITY_CLASSIFICATION_LEVEL ( 'unclassified' ) ;
#151 = PERSON_AND_ORGANIZATION_ROLE ( 'creator' ) ;
#152 = VECTOR ( 'NONE', #106, 1000.000000000000000 ) ;
#153 = ORIENTED_EDGE ( 'NONE', *, *, #50, .F. ) ;
#154 = PRODUCT_DEFINITION_SHAPE ( 'NONE', 'NONE',  #199 ) ;
#155 = LOCAL_TIME ( 16, 3, 23.00000000000000000, #17 ) ;
#156 = VECTOR ( 'NONE', #125, 1000.000000000000000 ) ;
#157 = APPROVAL ( #27, 'UNSPECIFIED' ) ;
#158 = UNCERTAINTY_MEASURE_WITH_UNIT (LENGTH_MEASURE( 1.000000000000000100E-005 ), #114, 'distance_accuracy_value', 'NONE');
#159 = DATE_AND_TIME ( #162, #80 ) ;
#160 = DIRECTION ( 'NONE',  ( 0.0000000000000000000, -1.000000000000000000, -2.775557561562891400E-016 ) ) ;
#161 = DATE_AND_TIME ( #36, #34 ) ;
#162 = CALENDAR_DATE ( 2018, 17, 4 ) ;
#163 = LINE ( 'NONE', #60, #214 ) ;
#164 = MECHANICAL_CONTEXT ( 'NONE', #96, 'mechanical' ) ;
#165 = EDGE_CURVE ( 'NONE', #72, #67, #104, .T. ) ;
#166 = APPROVAL_ROLE ( '' ) ;
#167 = DATE_TIME_ROLE ( 'classification_date' ) ;
#168 = APPLICATION_PROTOCOL_DEFINITION ( 'international standard', 'config_control_design', 1994, #96 ) ;
#169 = LINE ( 'NONE', #203, #152 ) ;
#170 = ADVANCED_FACE ( 'NONE', ( #211 ), #44, .F. ) ;
#171 = CC_DESIGN_APPROVAL ( #157, ( #132 ) ) ;
#172 = COORDINATED_UNIVERSAL_TIME_OFFSET ( 5, 0, .BEHIND. ) ;
#173 = FACE_OUTER_BOUND ( 'NONE', #31, .T. ) ;
#174 = VECTOR ( 'NONE', #123, 1000.000000000000000 ) ;
#175 = ORIENTED_EDGE ( 'NONE', *, *, #2, .T. ) ;
#176 = EDGE_LOOP ( 'NONE', ( #142, #153, #65, #118 ) ) ;
#177 = LINE ( 'NONE', #71, #39 ) ;
#178 = ORIENTED_EDGE ( 'NONE', *, *, #2, .F. ) ;
#179 = CARTESIAN_POINT ( 'NONE',  ( -2.500000000000000000, 37.49999999999998600, 25.00000000000000700 ) ) ;
#180 = CARTESIAN_POINT ( 'NONE',  ( 2.500000000000000000, -37.50000000000000000, -24.99999999999999300 ) ) ;
#181 = AXIS2_PLACEMENT_3D ( 'NONE', #10, #192, #206 ) ;
#182 = DIRECTION ( 'NONE',  ( 0.0000000000000000000, 1.000000000000000000, 0.0000000000000000000 ) ) ;
#183 = COORDINATED_UNIVERSAL_TIME_OFFSET ( 5, 0, .BEHIND. ) ;
#184 = PERSON_AND_ORGANIZATION ( #194, #225 ) ;
#185 = ADVANCED_FACE ( 'NONE', ( #51 ), #208, .F. ) ;
#186 = DIRECTION ( 'NONE',  ( 0.0000000000000000000, 1.000000000000000000, 0.0000000000000000000 ) ) ;
#187 = PERSON_AND_ORGANIZATION_ROLE ( 'design_owner' ) ;
#188 = APPROVAL_ROLE ( '' ) ;
#189 = EDGE_LOOP ( 'NONE', ( #83, #73, #210, #58 ) ) ;
#190 = PLANE ( 'NONE',  #213 ) ;
#191 = AXIS2_PLACEMENT_3D ( 'NONE', #78, #200, #107 ) ;
#192 = DIRECTION ( 'NONE',  ( 0.0000000000000000000, 0.0000000000000000000, 1.000000000000000000 ) ) ;
#193 = VECTOR ( 'NONE', #182, 1000.000000000000000 ) ;
#194 = PERSON ( 'UNSPECIFIED', 'UNSPECIFIED', 'UNSPECIFIED', ('UNSPECIFIED'), ('UNSPECIFIED'), ('UNSPECIFIED') ) ;
#195 = VERTEX_POINT ( 'NONE', #149 ) ;
#196 = CC_DESIGN_SECURITY_CLASSIFICATION ( #13, ( #132 ) ) ;
#197 = PERSON_AND_ORGANIZATION ( #194, #225 ) ;
#198 = ORIENTED_EDGE ( 'NONE', *, *, #70, .F. ) ;
#199 = PRODUCT_DEFINITION ( 'UNKNOWN', '', #132, #119 ) ;
#200 = DIRECTION ( 'NONE',  ( -0.0000000000000000000, 1.000000000000000000, 0.0000000000000000000 ) ) ;
#201 = VECTOR ( 'NONE', #127, 1000.000000000000000 ) ;
#202 = ORIENTED_EDGE ( 'NONE', *, *, #50, .T. ) ;
#203 = CARTESIAN_POINT ( 'NONE',  ( 2.500000000000000000, -37.50000000000000000, 24.99999999999999300 ) ) ;
#204 = ADVANCED_BREP_SHAPE_REPRESENTATION ( 'Web Model 55143_55143', ( #12, #181 ), #236 ) ;
#205 = CARTESIAN_POINT ( 'NONE',  ( 2.500000000000000000, -37.50000000000000000, 24.99999999999999300 ) ) ;
#206 = DIRECTION ( 'NONE',  ( 1.000000000000000000, 0.0000000000000000000, 0.0000000000000000000 ) ) ;
#207 = FACE_OUTER_BOUND ( 'NONE', #176, .T. ) ;
#208 = PLANE ( 'NONE',  #15 ) ;
#209 = ADVANCED_FACE ( 'NONE', ( #173 ), #190, .T. ) ;
#210 = ORIENTED_EDGE ( 'NONE', *, *, #57, .T. ) ;
#211 = FACE_OUTER_BOUND ( 'NONE', #234, .T. ) ;
#212 = LINE ( 'NONE', #90, #156 ) ;
#213 = AXIS2_PLACEMENT_3D ( 'NONE', #129, #230, #32 ) ;
#214 = VECTOR ( 'NONE', #47, 1000.000000000000000 ) ;
#215 = ORIENTED_EDGE ( 'NONE', *, *, #57, .F. ) ;
#216 = PRODUCT_RELATED_PRODUCT_CATEGORY ( 'detail', '', ( #229 ) ) ;
#217 = VECTOR ( 'NONE', #22, 1000.000000000000000 ) ;
#218 = CARTESIAN_POINT ( 'NONE',  ( 2.500000000000000000, -37.50000000000000000, 24.99999999999999300 ) ) ;
#219 = EDGE_CURVE ( 'NONE', #195, #72, #177, .T. ) ;
#220 = CARTESIAN_POINT ( 'NONE',  ( 2.500000000000000000, 37.49999999999998600, 25.00000000000000700 ) ) ;
#221 = APPROVAL_PERSON_ORGANIZATION ( #85, #157, #166 ) ;
#222 = CC_DESIGN_PERSON_AND_ORGANIZATION_ASSIGNMENT ( #24, #66, ( #132 ) ) ;
#223 = LINE ( 'NONE', #218, #35 ) ;
#224 = APPROVAL_STATUS ( 'not_yet_approved' ) ;
#225 = ORGANIZATION ( 'UNSPECIFIED', 'UNSPECIFIED', '' ) ;
#226 = CARTESIAN_POINT ( 'NONE',  ( 2.500000000000000000, 37.50000000000000000, -24.99999999999999300 ) ) ;
#227 = EDGE_CURVE ( 'NONE', #16, #54, #14, .T. ) ;
#228 = ORIENTED_EDGE ( 'NONE', *, *, #97, .F. ) ;
#229 = PRODUCT ( 'Web Model 55143_55143', 'Web Model 55143_55143', '', ( #164 ) ) ;
#230 = DIRECTION ( 'NONE',  ( -1.000000000000000000, 0.0000000000000000000, 0.0000000000000000000 ) ) ;
#231 = CALENDAR_DATE ( 2018, 17, 4 ) ;
#232 = ORIENTED_EDGE ( 'NONE', *, *, #165, .T. ) ;
#233 = AXIS2_PLACEMENT_3D ( 'NONE', #220, #160, #5 ) ;
#234 = EDGE_LOOP ( 'NONE', ( #89, #138, #228, #175 ) ) ;
#235 = VERTEX_POINT ( 'NONE', #226 ) ;
#236 =( GEOMETRIC_REPRESENTATION_CONTEXT ( 3 ) GLOBAL_UNCERTAINTY_ASSIGNED_CONTEXT ( ( #158 ) ) GLOBAL_UNIT_ASSIGNED_CONTEXT ( ( #114, #29, #8 ) ) REPRESENTATION_CONTEXT ( 'NONE', 'WORKASPACE' ) );
#237 = COORDINATED_UNIVERSAL_TIME_OFFSET ( 5, 0, .BEHIND. ) ;
ENDSEC;
END-ISO-10303-21;
