ISO-10303-21;
HEADER;
FILE_DESCRIPTION (( 'STEP AP203' ),
    '1' );
FILE_NAME ('Web Model 64397MX_15745.step',
    '2020-10-19T15:34:45',
    ( '' ),
    ( '' ),
    'SwSTEP 2.0',
    'SolidWorks 2018',
    '' );
FILE_SCHEMA (( 'CONFIG_CONTROL_DESIGN' ));
ENDSEC;

DATA;
#1 = LINE ( 'NONE', #115, #191 ) ;
#2 = EDGE_CURVE ( 'NONE', #214, #226, #78, .T. ) ;
#3 = PLANE ( 'NONE',  #65 ) ;
#4 = ORIENTED_EDGE ( 'NONE', *, *, #216, .T. ) ;
#5 = AXIS2_PLACEMENT_3D ( 'NONE', #210, #97, #149 ) ;
#6 = PERSON_AND_ORGANIZATION ( #184, #127 ) ;
#7 = DATE_AND_TIME ( #104, #17 ) ;
#8 = DIRECTION ( 'NONE',  ( 1.000000000000000000, 1.365923996832131609E-16, -0.0000000000000000000 ) ) ;
#9 = CARTESIAN_POINT ( 'NONE',  ( -6.350000000000000533, -6.350000000000000533, -3.000000000000000000 ) ) ;
#10 = DIRECTION ( 'NONE',  ( -1.000000000000000000, -1.365923996832131609E-16, 0.0000000000000000000 ) ) ;
#11 = LINE ( 'NONE', #209, #126 ) ;
#12 = APPROVAL_ROLE ( '' ) ;
#13 = MECHANICAL_CONTEXT ( 'NONE', #58, 'mechanical' ) ;
#14 = PERSON_AND_ORGANIZATION ( #184, #127 ) ;
#15 = VECTOR ( 'NONE', #96, 1000.000000000000000 ) ;
#16 = DATE_AND_TIME ( #57, #100 ) ;
#17 = LOCAL_TIME ( 11, 34, 45.00000000000000000, #161 ) ;
#18 = AXIS2_PLACEMENT_3D ( 'NONE', #103, #173, #10 ) ;
#19 = LINE ( 'NONE', #47, #61 ) ;
#20 = CC_DESIGN_APPROVAL ( #48, ( #233 ) ) ;
#21 = CC_DESIGN_DATE_AND_TIME_ASSIGNMENT ( #188, #200, ( #207 ) ) ;
#22 = ORIENTED_EDGE ( 'NONE', *, *, #41, .F. ) ;
#23 = CARTESIAN_POINT ( 'NONE',  ( -6.350000000000000533, 6.349999999999998757, 3.000000000000000000 ) ) ;
#24 = CARTESIAN_POINT ( 'NONE',  ( 6.349999999999998757, -6.349999999999998757, -3.000000000000000000 ) ) ;
#25 = VERTEX_POINT ( 'NONE', #166 ) ;
#26 = EDGE_CURVE ( 'NONE', #214, #120, #204, .T. ) ;
#27 = COORDINATED_UNIVERSAL_TIME_OFFSET ( 5, 0, .BEHIND. ) ;
#28 = CARTESIAN_POINT ( 'NONE',  ( 6.349999999999998757, 6.350000000000000533, 3.000000000000000000 ) ) ;
#29 = LINE ( 'NONE', #24, #15 ) ;
#30 = CARTESIAN_POINT ( 'NONE',  ( 6.349999999999998757, 6.350000000000000533, -3.000000000000000000 ) ) ;
#31 = EDGE_CURVE ( 'NONE', #25, #214, #11, .T. ) ;
#32 = AXIS2_PLACEMENT_3D ( 'NONE', #28, #50, #193 ) ;
#33 = CARTESIAN_POINT ( 'NONE',  ( -6.350000000000000533, -6.350000000000000533, 3.000000000000000000 ) ) ;
#34 = ORIENTED_EDGE ( 'NONE', *, *, #41, .T. ) ;
#35 = DIRECTION ( 'NONE',  ( 0.0000000000000000000, -0.0000000000000000000, 1.000000000000000000 ) ) ;
#36 = CARTESIAN_POINT ( 'NONE',  ( -6.350000000000000533, 6.349999999999998757, -3.000000000000000000 ) ) ;
#37 = EDGE_CURVE ( 'NONE', #164, #25, #42, .T. ) ;
#38 = SECURITY_CLASSIFICATION_LEVEL ( 'unclassified' ) ;
#39 = EDGE_LOOP ( 'NONE', ( #117, #130, #64, #77 ) ) ;
#40 = ORIENTED_EDGE ( 'NONE', *, *, #31, .F. ) ;
#41 = EDGE_CURVE ( 'NONE', #133, #148, #29, .T. ) ;
#42 = LINE ( 'NONE', #229, #172 ) ;
#43 = CARTESIAN_POINT ( 'NONE',  ( 6.349999999999998757, -6.349999999999998757, 3.000000000000000000 ) ) ;
#44 = ORIENTED_EDGE ( 'NONE', *, *, #109, .F. ) ;
#45 = PLANE ( 'NONE',  #18 ) ;
#46 = DESIGN_CONTEXT ( 'detailed design', #203, 'design' ) ;
#47 = CARTESIAN_POINT ( 'NONE',  ( -6.350000000000000533, -6.350000000000000533, 3.000000000000000000 ) ) ;
#48 = APPROVAL ( #122, 'UNSPECIFIED' ) ;
#49 = ORIENTED_EDGE ( 'NONE', *, *, #109, .T. ) ;
#50 = DIRECTION ( 'NONE',  ( 1.365923996832131609E-16, -1.000000000000000000, 0.0000000000000000000 ) ) ;
#51 = ORIENTED_EDGE ( 'NONE', *, *, #121, .T. ) ;
#52 = DIRECTION ( 'NONE',  ( 1.000000000000000000, 1.365923996832131609E-16, -0.0000000000000000000 ) ) ;
#53 = APPLICATION_PROTOCOL_DEFINITION ( 'international standard', 'config_control_design', 1994, #58 ) ;
#54 = APPROVAL_STATUS ( 'not_yet_approved' ) ;
#55 =( NAMED_UNIT ( * ) PLANE_ANGLE_UNIT ( ) SI_UNIT ( $, .RADIAN. ) );
#56 = FACE_OUTER_BOUND ( 'NONE', #160, .T. ) ;
#57 = CALENDAR_DATE ( 2020, 19, 10 ) ;
#58 = APPLICATION_CONTEXT ( 'configuration controlled 3d designs of mechanical parts and assemblies' ) ;
#59 = CARTESIAN_POINT ( 'NONE',  ( 6.349999999999998757, -6.349999999999998757, 3.000000000000000000 ) ) ;
#60 = PERSON_AND_ORGANIZATION ( #184, #127 ) ;
#61 = VECTOR ( 'NONE', #83, 1000.000000000000000 ) ;
#62 = EDGE_CURVE ( 'NONE', #120, #164, #227, .T. ) ;
#63 = PLANE ( 'NONE',  #5 ) ;
#64 = ORIENTED_EDGE ( 'NONE', *, *, #37, .T. ) ;
#65 = AXIS2_PLACEMENT_3D ( 'NONE', #212, #129, #165 ) ;
#66 = VECTOR ( 'NONE', #88, 1000.000000000000000 ) ;
#67 = DIRECTION ( 'NONE',  ( -0.0000000000000000000, -1.000000000000000000, -0.0000000000000000000 ) ) ;
#68 = VECTOR ( 'NONE', #189, 1000.000000000000000 ) ;
#69 = CARTESIAN_POINT ( 'NONE',  ( 6.349999999999998757, -6.349999999999998757, 3.000000000000000000 ) ) ;
#70 = CC_DESIGN_PERSON_AND_ORGANIZATION_ASSIGNMENT ( #14, #72, ( #75 ) ) ;
#71 = DIRECTION ( 'NONE',  ( -1.000000000000000000, -1.365923996832131609E-16, 0.0000000000000000000 ) ) ;
#72 = PERSON_AND_ORGANIZATION_ROLE ( 'design_owner' ) ;
#73 = LOCAL_TIME ( 11, 34, 45.00000000000000000, #206 ) ;
#74 = DIRECTION ( 'NONE',  ( 0.0000000000000000000, 0.0000000000000000000, 1.000000000000000000 ) ) ;
#75 = PRODUCT ( 'Web Model 64397MX_15745', 'Web Model 64397MX_15745', '', ( #13 ) ) ;
#76 = UNCERTAINTY_MEASURE_WITH_UNIT (LENGTH_MEASURE( 1.000000000000000082E-05 ), #219, 'distance_accuracy_value', 'NONE');
#77 = ORIENTED_EDGE ( 'NONE', *, *, #31, .T. ) ;
#78 = LINE ( 'NONE', #23, #68 ) ;
#79 = PERSON_AND_ORGANIZATION ( #184, #127 ) ;
#80 = ORIENTED_EDGE ( 'NONE', *, *, #26, .F. ) ;
#81 = DIRECTION ( 'NONE',  ( -1.000000000000000000, -1.365923996832131609E-16, 0.0000000000000000000 ) ) ;
#82 = ADVANCED_FACE ( 'NONE', ( #110 ), #63, .F. ) ;
#83 = DIRECTION ( 'NONE',  ( -0.0000000000000000000, -0.0000000000000000000, -1.000000000000000000 ) ) ;
#84 = LINE ( 'NONE', #139, #124 ) ;
#85 = ORIENTED_EDGE ( 'NONE', *, *, #185, .T. ) ;
#86 = DIRECTION ( 'NONE',  ( -0.0000000000000000000, -0.0000000000000000000, -1.000000000000000000 ) ) ;
#87 = DIRECTION ( 'NONE',  ( -1.000000000000000000, 0.0000000000000000000, 0.0000000000000000000 ) ) ;
#88 = DIRECTION ( 'NONE',  ( -0.0000000000000000000, -1.000000000000000000, -0.0000000000000000000 ) ) ;
#89 = VECTOR ( 'NONE', #67, 1000.000000000000000 ) ;
#90 = DIRECTION ( 'NONE',  ( 1.000000000000000000, 0.0000000000000000000, 0.0000000000000000000 ) ) ;
#91 = PERSON_AND_ORGANIZATION ( #184, #127 ) ;
#92 = FACE_OUTER_BOUND ( 'NONE', #223, .T. ) ;
#93 = EDGE_LOOP ( 'NONE', ( #162, #186, #22, #217 ) ) ;
#94 = CALENDAR_DATE ( 2020, 19, 10 ) ;
#95 = CLOSED_SHELL ( 'NONE', ( #82, #101, #192, #154, #174, #98 ) ) ;
#96 = DIRECTION ( 'NONE',  ( 0.0000000000000000000, 1.000000000000000000, 0.0000000000000000000 ) ) ;
#97 = DIRECTION ( 'NONE',  ( 1.000000000000000000, 0.0000000000000000000, 0.0000000000000000000 ) ) ;
#98 = ADVANCED_FACE ( 'NONE', ( #175 ), #3, .F. ) ;
#99 = VECTOR ( 'NONE', #71, 1000.000000000000000 ) ;
#100 = LOCAL_TIME ( 11, 34, 45.00000000000000000, #232 ) ;
#101 = ADVANCED_FACE ( 'NONE', ( #187 ), #45, .F. ) ;
#102 = ORIENTED_EDGE ( 'NONE', *, *, #140, .T. ) ;
#103 = CARTESIAN_POINT ( 'NONE',  ( 6.349999999999998757, -6.349999999999998757, 3.000000000000000000 ) ) ;
#104 = CALENDAR_DATE ( 2020, 19, 10 ) ;
#105 = CC_DESIGN_APPROVAL ( #116, ( #125 ) ) ;
#106 = PERSON_AND_ORGANIZATION_ROLE ( 'classification_officer' ) ;
#107 = PRODUCT_DEFINITION_SHAPE ( 'NONE', 'NONE',  #125 ) ;
#108 = CARTESIAN_POINT ( 'NONE',  ( 0.0000000000000000000, 0.0000000000000000000, 0.0000000000000000000 ) ) ;
#109 = EDGE_CURVE ( 'NONE', #164, #133, #208, .T. ) ;
#110 = FACE_OUTER_BOUND ( 'NONE', #237, .T. ) ;
#111 = DATE_AND_TIME ( #94, #202 ) ;
#112 = ORIENTED_EDGE ( 'NONE', *, *, #156, .F. ) ;
#113 = DIRECTION ( 'NONE',  ( 0.0000000000000000000, 1.000000000000000000, 0.0000000000000000000 ) ) ;
#114 = ORIENTED_EDGE ( 'NONE', *, *, #156, .T. ) ;
#115 = CARTESIAN_POINT ( 'NONE',  ( 6.349999999999998757, -6.349999999999998757, -3.000000000000000000 ) ) ;
#116 = APPROVAL ( #123, 'UNSPECIFIED' ) ;
#117 = ORIENTED_EDGE ( 'NONE', *, *, #26, .T. ) ;
#118 = CARTESIAN_POINT ( 'NONE',  ( 6.349999999999998757, 6.350000000000000533, -3.000000000000000000 ) ) ;
#119 = APPROVAL_ROLE ( '' ) ;
#120 = VERTEX_POINT ( 'NONE', #33 ) ;
#121 = EDGE_CURVE ( 'NONE', #167, #133, #1, .T. ) ;
#122 = APPROVAL_STATUS ( 'not_yet_approved' ) ;
#123 = APPROVAL_STATUS ( 'not_yet_approved' ) ;
#124 = VECTOR ( 'NONE', #220, 1000.000000000000000 ) ;
#125 = PRODUCT_DEFINITION ( 'UNKNOWN', '', #233, #46 ) ;
#126 = VECTOR ( 'NONE', #81, 1000.000000000000000 ) ;
#127 = ORGANIZATION ( 'UNSPECIFIED', 'UNSPECIFIED', '' ) ;
#128 = APPROVAL ( #54, 'UNSPECIFIED' ) ;
#129 = DIRECTION ( 'NONE',  ( 0.0000000000000000000, -0.0000000000000000000, 1.000000000000000000 ) ) ;
#130 = ORIENTED_EDGE ( 'NONE', *, *, #62, .T. ) ;
#131 =( GEOMETRIC_REPRESENTATION_CONTEXT ( 3 ) GLOBAL_UNCERTAINTY_ASSIGNED_CONTEXT ( ( #76 ) ) GLOBAL_UNIT_ASSIGNED_CONTEXT ( ( #219, #55, #178 ) ) REPRESENTATION_CONTEXT ( 'NONE', 'WORKASPACE' ) );
#132 = PLANE ( 'NONE',  #32 ) ;
#133 = VERTEX_POINT ( 'NONE', #155 ) ;
#134 = APPROVAL_DATE_TIME ( #145, #116 ) ;
#135 = ORIENTED_EDGE ( 'NONE', *, *, #185, .F. ) ;
#136 = PLANE ( 'NONE',  #143 ) ;
#137 = PERSON_AND_ORGANIZATION_ROLE ( 'creator' ) ;
#138 = LINE ( 'NONE', #118, #99 ) ;
#139 = CARTESIAN_POINT ( 'NONE',  ( 6.349999999999998757, 6.350000000000000533, 3.000000000000000000 ) ) ;
#140 = EDGE_CURVE ( 'NONE', #148, #226, #138, .T. ) ;
#141 = PERSON_AND_ORGANIZATION_ROLE ( 'creator' ) ;
#142 = APPROVAL_PERSON_ORGANIZATION ( #6, #128, #12 ) ;
#143 = AXIS2_PLACEMENT_3D ( 'NONE', #59, #87, #74 ) ;
#144 = CC_DESIGN_SECURITY_CLASSIFICATION ( #207, ( #233 ) ) ;
#145 = DATE_AND_TIME ( #150, #73 ) ;
#146 = CALENDAR_DATE ( 2020, 19, 10 ) ;
#147 = CARTESIAN_POINT ( 'NONE',  ( -6.350000000000000533, -6.350000000000000533, 3.000000000000000000 ) ) ;
#148 = VERTEX_POINT ( 'NONE', #30 ) ;
#149 = DIRECTION ( 'NONE',  ( 0.0000000000000000000, 0.0000000000000000000, -1.000000000000000000 ) ) ;
#150 = CALENDAR_DATE ( 2020, 19, 10 ) ;
#151 = COORDINATED_UNIVERSAL_TIME_OFFSET ( 5, 0, .BEHIND. ) ;
#152 = ADVANCED_BREP_SHAPE_REPRESENTATION ( 'Web Model 64397MX_15745', ( #190, #169 ), #131 ) ;
#153 = CARTESIAN_POINT ( 'NONE',  ( 6.349999999999998757, -6.349999999999998757, 3.000000000000000000 ) ) ;
#154 = ADVANCED_FACE ( 'NONE', ( #56 ), #132, .F. ) ;
#155 = CARTESIAN_POINT ( 'NONE',  ( 6.349999999999998757, -6.349999999999998757, -3.000000000000000000 ) ) ;
#156 = EDGE_CURVE ( 'NONE', #120, #167, #19, .T. ) ;
#157 = CC_DESIGN_APPROVAL ( #128, ( #207 ) ) ;
#158 = VECTOR ( 'NONE', #86, 1000.000000000000000 ) ;
#159 = CARTESIAN_POINT ( 'NONE',  ( -6.350000000000000533, -6.350000000000000533, -3.000000000000000000 ) ) ;
#160 = EDGE_LOOP ( 'NONE', ( #102, #196, #40, #85 ) ) ;
#161 = COORDINATED_UNIVERSAL_TIME_OFFSET ( 5, 0, .BEHIND. ) ;
#162 = ORIENTED_EDGE ( 'NONE', *, *, #216, .F. ) ;
#163 = AXIS2_PLACEMENT_3D ( 'NONE', #195, #35, #176 ) ;
#164 = VERTEX_POINT ( 'NONE', #153 ) ;
#165 = DIRECTION ( 'NONE',  ( 1.000000000000000000, 0.0000000000000000000, -0.0000000000000000000 ) ) ;
#166 = CARTESIAN_POINT ( 'NONE',  ( 6.349999999999998757, 6.350000000000000533, 3.000000000000000000 ) ) ;
#167 = VERTEX_POINT ( 'NONE', #9 ) ;
#168 = APPROVAL_PERSON_ORGANIZATION ( #197, #48, #221 ) ;
#169 = AXIS2_PLACEMENT_3D ( 'NONE', #108, #234, #90 ) ;
#170 = CC_DESIGN_PERSON_AND_ORGANIZATION_ASSIGNMENT ( #228, #106, ( #207 ) ) ;
#171 = APPROVAL_PERSON_ORGANIZATION ( #225, #116, #119 ) ;
#172 = VECTOR ( 'NONE', #113, 1000.000000000000000 ) ;
#173 = DIRECTION ( 'NONE',  ( -1.365923996832131609E-16, 1.000000000000000000, 0.0000000000000000000 ) ) ;
#174 = ADVANCED_FACE ( 'NONE', ( #179 ), #215, .T. ) ;
#175 = FACE_OUTER_BOUND ( 'NONE', #93, .T. ) ;
#176 = DIRECTION ( 'NONE',  ( 1.000000000000000000, 0.0000000000000000000, -0.0000000000000000000 ) ) ;
#177 = LOCAL_TIME ( 11, 34, 45.00000000000000000, #27 ) ;
#178 =( NAMED_UNIT ( * ) SI_UNIT ( $, .STERADIAN. ) SOLID_ANGLE_UNIT ( ) );
#179 = FACE_OUTER_BOUND ( 'NONE', #39, .T. ) ;
#180 = ORIENTED_EDGE ( 'NONE', *, *, #2, .T. ) ;
#181 = CC_DESIGN_PERSON_AND_ORGANIZATION_ASSIGNMENT ( #60, #141, ( #233 ) ) ;
#182 = PERSON_AND_ORGANIZATION_ROLE ( 'design_supplier' ) ;
#183 = ORIENTED_EDGE ( 'NONE', *, *, #37, .F. ) ;
#184 = PERSON ( 'UNSPECIFIED', 'UNSPECIFIED', 'UNSPECIFIED', ('UNSPECIFIED'), ('UNSPECIFIED'), ('UNSPECIFIED') ) ;
#185 = EDGE_CURVE ( 'NONE', #25, #148, #84, .T. ) ;
#186 = ORIENTED_EDGE ( 'NONE', *, *, #140, .F. ) ;
#187 = FACE_OUTER_BOUND ( 'NONE', #222, .T. ) ;
#188 = DATE_AND_TIME ( #146, #177 ) ;
#189 = DIRECTION ( 'NONE',  ( -0.0000000000000000000, -0.0000000000000000000, -1.000000000000000000 ) ) ;
#190 = MANIFOLD_SOLID_BREP ( 'Boss-Extrude1', #95 ) ;
#191 = VECTOR ( 'NONE', #52, 1000.000000000000000 ) ;
#192 = ADVANCED_FACE ( 'NONE', ( #92 ), #136, .F. ) ;
#193 = DIRECTION ( 'NONE',  ( 1.000000000000000000, 1.365923996832131609E-16, 0.0000000000000000000 ) ) ;
#194 = CC_DESIGN_PERSON_AND_ORGANIZATION_ASSIGNMENT ( #91, #182, ( #233 ) ) ;
#195 = CARTESIAN_POINT ( 'NONE',  ( 0.0000000000000000000, 0.0000000000000000000, 3.000000000000000000 ) ) ;
#196 = ORIENTED_EDGE ( 'NONE', *, *, #2, .F. ) ;
#197 = PERSON_AND_ORGANIZATION ( #184, #127 ) ;
#198 = SHAPE_DEFINITION_REPRESENTATION ( #107, #152 ) ;
#199 = CC_DESIGN_PERSON_AND_ORGANIZATION_ASSIGNMENT ( #79, #137, ( #125 ) ) ;
#200 = DATE_TIME_ROLE ( 'classification_date' ) ;
#201 = PRODUCT_RELATED_PRODUCT_CATEGORY ( 'detail', '', ( #75 ) ) ;
#202 = LOCAL_TIME ( 11, 34, 45.00000000000000000, #151 ) ;
#203 = APPLICATION_CONTEXT ( 'configuration controlled 3d designs of mechanical parts and assemblies' ) ;
#204 = LINE ( 'NONE', #147, #89 ) ;
#205 = APPROVAL_DATE_TIME ( #111, #48 ) ;
#206 = COORDINATED_UNIVERSAL_TIME_OFFSET ( 5, 0, .BEHIND. ) ;
#207 = SECURITY_CLASSIFICATION ( '', '', #38 ) ;
#208 = LINE ( 'NONE', #69, #158 ) ;
#209 = CARTESIAN_POINT ( 'NONE',  ( 6.349999999999998757, 6.350000000000000533, 3.000000000000000000 ) ) ;
#210 = CARTESIAN_POINT ( 'NONE',  ( -6.350000000000000533, -6.350000000000000533, 3.000000000000000000 ) ) ;
#211 = LINE ( 'NONE', #159, #66 ) ;
#212 = CARTESIAN_POINT ( 'NONE',  ( 0.0000000000000000000, 0.0000000000000000000, -3.000000000000000000 ) ) ;
#213 = CC_DESIGN_DATE_AND_TIME_ASSIGNMENT ( #7, #218, ( #125 ) ) ;
#214 = VERTEX_POINT ( 'NONE', #231 ) ;
#215 = PLANE ( 'NONE',  #163 ) ;
#216 = EDGE_CURVE ( 'NONE', #226, #167, #211, .T. ) ;
#217 = ORIENTED_EDGE ( 'NONE', *, *, #121, .F. ) ;
#218 = DATE_TIME_ROLE ( 'creation_date' ) ;
#219 =( LENGTH_UNIT ( ) NAMED_UNIT ( * ) SI_UNIT ( .MILLI., .METRE. ) );
#220 = DIRECTION ( 'NONE',  ( -0.0000000000000000000, -0.0000000000000000000, -1.000000000000000000 ) ) ;
#221 = APPROVAL_ROLE ( '' ) ;
#222 = EDGE_LOOP ( 'NONE', ( #51, #44, #230, #114 ) ) ;
#223 = EDGE_LOOP ( 'NONE', ( #34, #135, #183, #49 ) ) ;
#224 = APPROVAL_DATE_TIME ( #16, #128 ) ;
#225 = PERSON_AND_ORGANIZATION ( #184, #127 ) ;
#226 = VERTEX_POINT ( 'NONE', #36 ) ;
#227 = LINE ( 'NONE', #43, #235 ) ;
#228 = PERSON_AND_ORGANIZATION ( #184, #127 ) ;
#229 = CARTESIAN_POINT ( 'NONE',  ( 6.349999999999998757, -6.349999999999998757, 3.000000000000000000 ) ) ;
#230 = ORIENTED_EDGE ( 'NONE', *, *, #62, .F. ) ;
#231 = CARTESIAN_POINT ( 'NONE',  ( -6.350000000000000533, 6.349999999999998757, 3.000000000000000000 ) ) ;
#232 = COORDINATED_UNIVERSAL_TIME_OFFSET ( 5, 0, .BEHIND. ) ;
#233 = PRODUCT_DEFINITION_FORMATION_WITH_SPECIFIED_SOURCE ( 'ANY', '', #75, .NOT_KNOWN. ) ;
#234 = DIRECTION ( 'NONE',  ( 0.0000000000000000000, 0.0000000000000000000, 1.000000000000000000 ) ) ;
#235 = VECTOR ( 'NONE', #8, 1000.000000000000000 ) ;
#236 = APPLICATION_PROTOCOL_DEFINITION ( 'international standard', 'config_control_design', 1994, #203 ) ;
#237 = EDGE_LOOP ( 'NONE', ( #4, #112, #80, #180 ) ) ;
ENDSEC;
END-ISO-10303-21;
