ISO-10303-21;
HEADER;
FILE_DESCRIPTION (( 'STEP AP203' ),
    '1' );
FILE_NAME ('Web Model 20207_20209.step',
    '2022-03-01T15:53:30',
    ( '' ),
    ( '' ),
    'SwSTEP 2.0',
    'SolidWorks 2021',
    '' );
FILE_SCHEMA (( 'CONFIG_CONTROL_DESIGN' ));
ENDSEC;

DATA;
#1 = EDGE_CURVE ( 'NONE', #165, #55, #67, .T. ) ;
#2 = ORIENTED_EDGE ( 'NONE', *, *, #110, .F. ) ;
#3 = CARTESIAN_POINT ( 'NONE',  ( -6.250000000000000000, 0.000000000000000000, 0.1000000000000000056 ) ) ;
#4 = PRODUCT_DEFINITION_FORMATION_WITH_SPECIFIED_SOURCE ( 'ANY', '', #69, .NOT_KNOWN. ) ;
#5 = DIRECTION ( 'NONE',  ( 0.000000000000000000, 0.000000000000000000, 1.000000000000000000 ) ) ;
#6 = DIRECTION ( 'NONE',  ( 1.000000000000000000, 0.000000000000000000, 0.000000000000000000 ) ) ;
#7 = APPROVAL ( #133, 'UNSPECIFIED' ) ;
#8 = DIRECTION ( 'NONE',  ( 1.000000000000000000, 0.000000000000000000, 0.000000000000000000 ) ) ;
#9 = APPROVAL_ROLE ( '' ) ;
#10 = COORDINATED_UNIVERSAL_TIME_OFFSET ( 5, 0, .BEHIND. ) ;
#11 = CC_DESIGN_PERSON_AND_ORGANIZATION_ASSIGNMENT ( #40, #79, ( #4 ) ) ;
#12 = CC_DESIGN_PERSON_AND_ORGANIZATION_ASSIGNMENT ( #52, #49, ( #69 ) ) ;
#13 = EDGE_LOOP ( 'NONE', ( #2, #150, #124, #168 ) ) ;
#14 = LOCAL_TIME ( 10, 53, 30.00000000000000000, #119 ) ;
#15 = EDGE_LOOP ( 'NONE', ( #93, #166 ) ) ;
#16 = DIRECTION ( 'NONE',  ( 0.000000000000000000, 0.000000000000000000, 1.000000000000000000 ) ) ;
#17 = ORIENTED_EDGE ( 'NONE', *, *, #27, .F. ) ;
#18 = CARTESIAN_POINT ( 'NONE',  ( -6.250000000000000000, 0.000000000000000000, 0.000000000000000000 ) ) ;
#19 = CARTESIAN_POINT ( 'NONE',  ( 0.000000000000000000, 0.000000000000000000, 0.000000000000000000 ) ) ;
#20 = LOCAL_TIME ( 10, 53, 30.00000000000000000, #10 ) ;
#21 = APPROVAL_ROLE ( '' ) ;
#22 = SHAPE_DEFINITION_REPRESENTATION ( #138, #46 ) ;
#23 = DATE_AND_TIME ( #103, #41 ) ;
#24 = CC_DESIGN_APPROVAL ( #7, ( #59 ) ) ;
#25 = PERSON_AND_ORGANIZATION_ROLE ( 'creator' ) ;
#26 = COORDINATED_UNIVERSAL_TIME_OFFSET ( 5, 0, .BEHIND. ) ;
#27 = EDGE_CURVE ( 'NONE', #54, #111, #130, .T. ) ;
#28 = PERSON ( 'UNSPECIFIED', 'UNSPECIFIED', 'UNSPECIFIED', ('UNSPECIFIED'), ('UNSPECIFIED'), ('UNSPECIFIED') ) ;
#29 = LOCAL_TIME ( 10, 53, 30.00000000000000000, #26 ) ;
#30 = PRODUCT_RELATED_PRODUCT_CATEGORY ( 'detail', '', ( #69 ) ) ;
#31 = CARTESIAN_POINT ( 'NONE',  ( 0.000000000000000000, 0.000000000000000000, 0.1000000000000000056 ) ) ;
#32 = AXIS2_PLACEMENT_3D ( 'NONE', #139, #155, #115 ) ;
#33 = ORIENTED_EDGE ( 'NONE', *, *, #158, .F. ) ;
#34 = CYLINDRICAL_SURFACE ( 'NONE', #95, 6.250000000000000000 ) ;
#35 = DIRECTION ( 'NONE',  ( -0.000000000000000000, -0.000000000000000000, -1.000000000000000000 ) ) ;
#36 = CALENDAR_DATE ( 2022, 1, 3 ) ;
#37 = SECURITY_CLASSIFICATION_LEVEL ( 'unclassified' ) ;
#38 = CC_DESIGN_PERSON_AND_ORGANIZATION_ASSIGNMENT ( #171, #105, ( #4 ) ) ;
#39 = ORGANIZATION ( 'UNSPECIFIED', 'UNSPECIFIED', '' ) ;
#40 = PERSON_AND_ORGANIZATION ( #28, #39 ) ;
#41 = LOCAL_TIME ( 10, 53, 30.00000000000000000, #169 ) ;
#42 = FACE_OUTER_BOUND ( 'NONE', #58, .T. ) ;
#43 = DIRECTION ( 'NONE',  ( -1.000000000000000000, 0.000000000000000000, 0.000000000000000000 ) ) ;
#44 = CARTESIAN_POINT ( 'NONE',  ( 0.000000000000000000, 0.000000000000000000, 0.000000000000000000 ) ) ;
#45 = CLOSED_SHELL ( 'NONE', ( #126, #127, #100, #57 ) ) ;
#46 = ADVANCED_BREP_SHAPE_REPRESENTATION ( 'Web Model 20207_20209', ( #64, #53 ), #98 ) ;
#47 = FACE_OUTER_BOUND ( 'NONE', #13, .T. ) ;
#48 = LINE ( 'NONE', #61, #81 ) ;
#49 = PERSON_AND_ORGANIZATION_ROLE ( 'design_owner' ) ;
#50 = AXIS2_PLACEMENT_3D ( 'NONE', #31, #156, #83 ) ;
#51 = APPROVAL_STATUS ( 'not_yet_approved' ) ;
#52 = PERSON_AND_ORGANIZATION ( #28, #39 ) ;
#53 = AXIS2_PLACEMENT_3D ( 'NONE', #172, #161, #148 ) ;
#54 = VERTEX_POINT ( 'NONE', #63 ) ;
#55 = VERTEX_POINT ( 'NONE', #18 ) ;
#56 = CC_DESIGN_SECURITY_CLASSIFICATION ( #59, ( #4 ) ) ;
#57 = ADVANCED_FACE ( 'NONE', ( #74 ), #75, .F. ) ;
#58 = EDGE_LOOP ( 'NONE', ( #123, #17, #70, #85 ) ) ;
#59 = SECURITY_CLASSIFICATION ( '', '', #37 ) ;
#60 =( LENGTH_UNIT ( ) NAMED_UNIT ( * ) SI_UNIT ( .MILLI., .METRE. ) );
#61 = CARTESIAN_POINT ( 'NONE',  ( 6.250000000000000000, 7.654042494670957606E-16, 0.1000000000000000056 ) ) ;
#62 = CARTESIAN_POINT ( 'NONE',  ( 0.000000000000000000, 0.000000000000000000, 0.1000000000000000056 ) ) ;
#63 = CARTESIAN_POINT ( 'NONE',  ( -6.250000000000000000, 0.000000000000000000, 0.1000000000000000056 ) ) ;
#64 = MANIFOLD_SOLID_BREP ( 'Boss-Extrude1', #45 ) ;
#65 = CALENDAR_DATE ( 2022, 1, 3 ) ;
#66 = MECHANICAL_CONTEXT ( 'NONE', #140, 'mechanical' ) ;
#67 = CIRCLE ( 'NONE', #160, 6.250000000000000000 ) ;
#68 = PRODUCT_DEFINITION ( 'UNKNOWN', '', #4, #78 ) ;
#69 = PRODUCT ( 'Web Model 20207_20209', 'Web Model 20207_20209', '', ( #66 ) ) ;
#70 = ORIENTED_EDGE ( 'NONE', *, *, #121, .T. ) ;
#71 = CIRCLE ( 'NONE', #170, 6.250000000000000000 ) ;
#72 = CC_DESIGN_APPROVAL ( #135, ( #68 ) ) ;
#73 = DIRECTION ( 'NONE',  ( 1.000000000000000000, 0.000000000000000000, 0.000000000000000000 ) ) ;
#74 = FACE_OUTER_BOUND ( 'NONE', #109, .T. ) ;
#75 = PLANE ( 'NONE',  #163 ) ;
#76 = APPROVAL_PERSON_ORGANIZATION ( #90, #135, #21 ) ;
#77 = APPROVAL_ROLE ( '' ) ;
#78 = DESIGN_CONTEXT ( 'detailed design', #151, 'design' ) ;
#79 = PERSON_AND_ORGANIZATION_ROLE ( 'design_supplier' ) ;
#80 = DATE_AND_TIME ( #157, #29 ) ;
#81 = VECTOR ( 'NONE', #102, 1000.000000000000000 ) ;
#82 = APPROVAL ( #51, 'UNSPECIFIED' ) ;
#83 = DIRECTION ( 'NONE',  ( 1.000000000000000000, 0.000000000000000000, -0.000000000000000000 ) ) ;
#84 = VECTOR ( 'NONE', #35, 1000.000000000000000 ) ;
#85 = ORIENTED_EDGE ( 'NONE', *, *, #158, .T. ) ;
#86 = ORIENTED_EDGE ( 'NONE', *, *, #1, .F. ) ;
#87 = CARTESIAN_POINT ( 'NONE',  ( 0.000000000000000000, 0.000000000000000000, 0.1000000000000000056 ) ) ;
#88 = DATE_TIME_ROLE ( 'classification_date' ) ;
#89 = PERSON_AND_ORGANIZATION ( #28, #39 ) ;
#90 = PERSON_AND_ORGANIZATION ( #28, #39 ) ;
#91 = APPLICATION_PROTOCOL_DEFINITION ( 'international standard', 'config_control_design', 1994, #140 ) ;
#92 = PERSON_AND_ORGANIZATION ( #28, #39 ) ;
#93 = ORIENTED_EDGE ( 'NONE', *, *, #27, .T. ) ;
#94 = EDGE_CURVE ( 'NONE', #111, #165, #48, .T. ) ;
#95 = AXIS2_PLACEMENT_3D ( 'NONE', #87, #143, #43 ) ;
#96 =( NAMED_UNIT ( * ) PLANE_ANGLE_UNIT ( ) SI_UNIT ( $, .RADIAN. ) );
#97 = CARTESIAN_POINT ( 'NONE',  ( 6.250000000000000000, 7.654042494670957606E-16, 0.000000000000000000 ) ) ;
#98 =( GEOMETRIC_REPRESENTATION_CONTEXT ( 3 ) GLOBAL_UNCERTAINTY_ASSIGNED_CONTEXT ( ( #118 ) ) GLOBAL_UNIT_ASSIGNED_CONTEXT ( ( #60, #96, #112 ) ) REPRESENTATION_CONTEXT ( 'NONE', 'WORKASPACE' ) );
#99 = FACE_OUTER_BOUND ( 'NONE', #15, .T. ) ;
#100 = ADVANCED_FACE ( 'NONE', ( #99 ), #154, .T. ) ;
#101 = CYLINDRICAL_SURFACE ( 'NONE', #32, 6.250000000000000000 ) ;
#102 = DIRECTION ( 'NONE',  ( -0.000000000000000000, -0.000000000000000000, -1.000000000000000000 ) ) ;
#103 = CALENDAR_DATE ( 2022, 1, 3 ) ;
#104 = CC_DESIGN_APPROVAL ( #82, ( #4 ) ) ;
#105 = PERSON_AND_ORGANIZATION_ROLE ( 'creator' ) ;
#106 = DATE_TIME_ROLE ( 'creation_date' ) ;
#107 = APPROVAL_DATE_TIME ( #137, #82 ) ;
#108 = CC_DESIGN_DATE_AND_TIME_ASSIGNMENT ( #80, #88, ( #59 ) ) ;
#109 = EDGE_LOOP ( 'NONE', ( #33, #86 ) ) ;
#110 = EDGE_CURVE ( 'NONE', #111, #54, #71, .T. ) ;
#111 = VERTEX_POINT ( 'NONE', #167 ) ;
#112 =( NAMED_UNIT ( * ) SI_UNIT ( $, .STERADIAN. ) SOLID_ANGLE_UNIT ( ) );
#113 = CARTESIAN_POINT ( 'NONE',  ( 0.000000000000000000, 0.000000000000000000, 0.1000000000000000056 ) ) ;
#114 = DIRECTION ( 'NONE',  ( 1.000000000000000000, 0.000000000000000000, -0.000000000000000000 ) ) ;
#115 = DIRECTION ( 'NONE',  ( -1.000000000000000000, 0.000000000000000000, 0.000000000000000000 ) ) ;
#116 = CALENDAR_DATE ( 2022, 1, 3 ) ;
#117 = APPROVAL_DATE_TIME ( #122, #135 ) ;
#118 = UNCERTAINTY_MEASURE_WITH_UNIT (LENGTH_MEASURE( 1.000000000000000082E-05 ), #60, 'distance_accuracy_value', 'NONE');
#119 = COORDINATED_UNIVERSAL_TIME_OFFSET ( 5, 0, .BEHIND. ) ;
#120 = COORDINATED_UNIVERSAL_TIME_OFFSET ( 5, 0, .BEHIND. ) ;
#121 = EDGE_CURVE ( 'NONE', #54, #55, #164, .T. ) ;
#122 = DATE_AND_TIME ( #116, #125 ) ;
#123 = ORIENTED_EDGE ( 'NONE', *, *, #94, .F. ) ;
#124 = ORIENTED_EDGE ( 'NONE', *, *, #1, .T. ) ;
#125 = LOCAL_TIME ( 10, 53, 30.00000000000000000, #120 ) ;
#126 = ADVANCED_FACE ( 'NONE', ( #47 ), #101, .T. ) ;
#127 = ADVANCED_FACE ( 'NONE', ( #42 ), #34, .T. ) ;
#128 = DIRECTION ( 'NONE',  ( 0.000000000000000000, 0.000000000000000000, 1.000000000000000000 ) ) ;
#129 = CARTESIAN_POINT ( 'NONE',  ( 0.000000000000000000, 0.000000000000000000, 0.000000000000000000 ) ) ;
#130 = CIRCLE ( 'NONE', #152, 6.250000000000000000 ) ;
#131 = AXIS2_PLACEMENT_3D ( 'NONE', #19, #5, #132 ) ;
#132 = DIRECTION ( 'NONE',  ( 1.000000000000000000, 0.000000000000000000, 0.000000000000000000 ) ) ;
#133 = APPROVAL_STATUS ( 'not_yet_approved' ) ;
#134 = CIRCLE ( 'NONE', #131, 6.250000000000000000 ) ;
#135 = APPROVAL ( #136, 'UNSPECIFIED' ) ;
#136 = APPROVAL_STATUS ( 'not_yet_approved' ) ;
#137 = DATE_AND_TIME ( #65, #20 ) ;
#138 = PRODUCT_DEFINITION_SHAPE ( 'NONE', 'NONE',  #68 ) ;
#139 = CARTESIAN_POINT ( 'NONE',  ( 0.000000000000000000, 0.000000000000000000, 0.1000000000000000056 ) ) ;
#140 = APPLICATION_CONTEXT ( 'configuration controlled 3d designs of mechanical parts and assemblies' ) ;
#141 = APPROVAL_PERSON_ORGANIZATION ( #145, #7, #9 ) ;
#142 = DIRECTION ( 'NONE',  ( 0.000000000000000000, 0.000000000000000000, 1.000000000000000000 ) ) ;
#143 = DIRECTION ( 'NONE',  ( -0.000000000000000000, -0.000000000000000000, -1.000000000000000000 ) ) ;
#144 = CC_DESIGN_DATE_AND_TIME_ASSIGNMENT ( #159, #106, ( #68 ) ) ;
#145 = PERSON_AND_ORGANIZATION ( #28, #39 ) ;
#146 = APPROVAL_DATE_TIME ( #23, #7 ) ;
#147 = APPLICATION_PROTOCOL_DEFINITION ( 'international standard', 'config_control_design', 1994, #151 ) ;
#148 = DIRECTION ( 'NONE',  ( 1.000000000000000000, 0.000000000000000000, 0.000000000000000000 ) ) ;
#149 = PERSON_AND_ORGANIZATION_ROLE ( 'classification_officer' ) ;
#150 = ORIENTED_EDGE ( 'NONE', *, *, #94, .T. ) ;
#151 = APPLICATION_CONTEXT ( 'configuration controlled 3d designs of mechanical parts and assemblies' ) ;
#152 = AXIS2_PLACEMENT_3D ( 'NONE', #113, #128, #6 ) ;
#153 = DIRECTION ( 'NONE',  ( 0.000000000000000000, 0.000000000000000000, 1.000000000000000000 ) ) ;
#154 = PLANE ( 'NONE',  #50 ) ;
#155 = DIRECTION ( 'NONE',  ( -0.000000000000000000, -0.000000000000000000, -1.000000000000000000 ) ) ;
#156 = DIRECTION ( 'NONE',  ( 0.000000000000000000, 0.000000000000000000, 1.000000000000000000 ) ) ;
#157 = CALENDAR_DATE ( 2022, 1, 3 ) ;
#158 = EDGE_CURVE ( 'NONE', #55, #165, #134, .T. ) ;
#159 = DATE_AND_TIME ( #36, #14 ) ;
#160 = AXIS2_PLACEMENT_3D ( 'NONE', #44, #16, #73 ) ;
#161 = DIRECTION ( 'NONE',  ( 0.000000000000000000, 0.000000000000000000, 1.000000000000000000 ) ) ;
#162 = CC_DESIGN_PERSON_AND_ORGANIZATION_ASSIGNMENT ( #92, #149, ( #59 ) ) ;
#163 = AXIS2_PLACEMENT_3D ( 'NONE', #129, #153, #114 ) ;
#164 = LINE ( 'NONE', #3, #84 ) ;
#165 = VERTEX_POINT ( 'NONE', #97 ) ;
#166 = ORIENTED_EDGE ( 'NONE', *, *, #110, .T. ) ;
#167 = CARTESIAN_POINT ( 'NONE',  ( 6.250000000000000000, 7.654042494670957606E-16, 0.1000000000000000056 ) ) ;
#168 = ORIENTED_EDGE ( 'NONE', *, *, #121, .F. ) ;
#169 = COORDINATED_UNIVERSAL_TIME_OFFSET ( 5, 0, .BEHIND. ) ;
#170 = AXIS2_PLACEMENT_3D ( 'NONE', #62, #142, #8 ) ;
#171 = PERSON_AND_ORGANIZATION ( #28, #39 ) ;
#172 = CARTESIAN_POINT ( 'NONE',  ( 0.000000000000000000, 0.000000000000000000, 0.000000000000000000 ) ) ;
#173 = PERSON_AND_ORGANIZATION ( #28, #39 ) ;
#174 = APPROVAL_PERSON_ORGANIZATION ( #173, #82, #77 ) ;
#175 = CC_DESIGN_PERSON_AND_ORGANIZATION_ASSIGNMENT ( #89, #25, ( #68 ) ) ;
ENDSEC;
END-ISO-10303-21;
