ISO-10303-21;
HEADER;
FILE_DESCRIPTION (( 'STEP AP203' ),
    '1' );
FILE_NAME ('Web Model 19921_19921.step',
    '2022-01-24T16:16:35',
    ( '' ),
    ( '' ),
    'SwSTEP 2.0',
    'SolidWorks 2021',
    '' );
FILE_SCHEMA (( 'CONFIG_CONTROL_DESIGN' ));
ENDSEC;

DATA;
#1 = DIRECTION ( 'NONE',  ( 0.000000000000000000, 0.000000000000000000, 1.000000000000000000 ) ) ;
#2 = AXIS2_PLACEMENT_3D ( 'NONE', #12, #53, #104 ) ;
#3 = PERSON ( 'UNSPECIFIED', 'UNSPECIFIED', 'UNSPECIFIED', ('UNSPECIFIED'), ('UNSPECIFIED'), ('UNSPECIFIED') ) ;
#4 = APPROVAL_STATUS ( 'not_yet_approved' ) ;
#5 = AXIS2_PLACEMENT_3D ( 'NONE', #22, #31, #123 ) ;
#6 = CC_DESIGN_PERSON_AND_ORGANIZATION_ASSIGNMENT ( #79, #69, ( #143 ) ) ;
#7 = LOCAL_TIME ( 11, 16, 35.00000000000000000, #44 ) ;
#8 = APPLICATION_CONTEXT ( 'configuration controlled 3d designs of mechanical parts and assemblies' ) ;
#9 = ORIENTED_EDGE ( 'NONE', *, *, #13, .F. ) ;
#10 = ORIENTED_EDGE ( 'NONE', *, *, #150, .F. ) ;
#11 = ORIENTED_EDGE ( 'NONE', *, *, #75, .F. ) ;
#12 = CARTESIAN_POINT ( 'NONE',  ( 0.000000000000000000, 0.000000000000000000, 3.000000000000000000 ) ) ;
#13 = EDGE_CURVE ( 'NONE', #63, #172, #38, .T. ) ;
#14 = APPLICATION_PROTOCOL_DEFINITION ( 'international standard', 'config_control_design', 1994, #28 ) ;
#15 = DIRECTION ( 'NONE',  ( 0.000000000000000000, 0.000000000000000000, 1.000000000000000000 ) ) ;
#16 = AXIS2_PLACEMENT_3D ( 'NONE', #83, #68, #82 ) ;
#17 =( NAMED_UNIT ( * ) PLANE_ANGLE_UNIT ( ) SI_UNIT ( $, .RADIAN. ) );
#18 = PLANE ( 'NONE',  #132 ) ;
#19 = DATE_TIME_ROLE ( 'classification_date' ) ;
#20 = APPROVAL_DATE_TIME ( #21, #128 ) ;
#21 = DATE_AND_TIME ( #86, #151 ) ;
#22 = CARTESIAN_POINT ( 'NONE',  ( 0.000000000000000000, 0.000000000000000000, 3.000000000000000000 ) ) ;
#23 = ORIENTED_EDGE ( 'NONE', *, *, #62, .F. ) ;
#24 =( GEOMETRIC_REPRESENTATION_CONTEXT ( 3 ) GLOBAL_UNCERTAINTY_ASSIGNED_CONTEXT ( ( #54 ) ) GLOBAL_UNIT_ASSIGNED_CONTEXT ( ( #149, #17, #126 ) ) REPRESENTATION_CONTEXT ( 'NONE', 'WORKASPACE' ) );
#25 = EDGE_LOOP ( 'NONE', ( #11, #169, #146, #9 ) ) ;
#26 = VERTEX_POINT ( 'NONE', #77 ) ;
#27 = ORGANIZATION ( 'UNSPECIFIED', 'UNSPECIFIED', '' ) ;
#28 = APPLICATION_CONTEXT ( 'configuration controlled 3d designs of mechanical parts and assemblies' ) ;
#29 = APPROVAL_ROLE ( '' ) ;
#30 = APPROVAL ( #95, 'UNSPECIFIED' ) ;
#31 = DIRECTION ( 'NONE',  ( 0.000000000000000000, 0.000000000000000000, 1.000000000000000000 ) ) ;
#32 = DATE_AND_TIME ( #98, #7 ) ;
#33 = PERSON_AND_ORGANIZATION ( #3, #27 ) ;
#34 = CC_DESIGN_DATE_AND_TIME_ASSIGNMENT ( #46, #19, ( #35 ) ) ;
#35 = SECURITY_CLASSIFICATION ( '', '', #141 ) ;
#36 = CALENDAR_DATE ( 2022, 24, 1 ) ;
#37 = APPROVAL_PERSON_ORGANIZATION ( #152, #30, #29 ) ;
#38 = LINE ( 'NONE', #92, #109 ) ;
#39 = FACE_OUTER_BOUND ( 'NONE', #64, .T. ) ;
#40 = ORIENTED_EDGE ( 'NONE', *, *, #45, .F. ) ;
#41 = DIRECTION ( 'NONE',  ( 0.000000000000000000, 0.000000000000000000, 1.000000000000000000 ) ) ;
#42 = CARTESIAN_POINT ( 'NONE',  ( 0.000000000000000000, 0.000000000000000000, 0.000000000000000000 ) ) ;
#43 = MECHANICAL_CONTEXT ( 'NONE', #8, 'mechanical' ) ;
#44 = COORDINATED_UNIVERSAL_TIME_OFFSET ( 5, 0, .BEHIND. ) ;
#45 = EDGE_CURVE ( 'NONE', #26, #94, #134, .T. ) ;
#46 = DATE_AND_TIME ( #113, #153 ) ;
#47 = CC_DESIGN_APPROVAL ( #145, ( #35 ) ) ;
#48 = ORIENTED_EDGE ( 'NONE', *, *, #116, .F. ) ;
#49 = ORIENTED_EDGE ( 'NONE', *, *, #150, .T. ) ;
#50 = CIRCLE ( 'NONE', #56, 15.00000000000000000 ) ;
#51 = DIRECTION ( 'NONE',  ( 0.000000000000000000, 0.000000000000000000, 1.000000000000000000 ) ) ;
#52 = CC_DESIGN_PERSON_AND_ORGANIZATION_ASSIGNMENT ( #108, #161, ( #87 ) ) ;
#53 = DIRECTION ( 'NONE',  ( -0.000000000000000000, -0.000000000000000000, -1.000000000000000000 ) ) ;
#54 = UNCERTAINTY_MEASURE_WITH_UNIT (LENGTH_MEASURE( 1.000000000000000082E-05 ), #149, 'distance_accuracy_value', 'NONE');
#55 = DIRECTION ( 'NONE',  ( 1.000000000000000000, 0.000000000000000000, 0.000000000000000000 ) ) ;
#56 = AXIS2_PLACEMENT_3D ( 'NONE', #157, #51, #78 ) ;
#57 = CARTESIAN_POINT ( 'NONE',  ( -15.00000000000000000, 0.000000000000000000, 0.000000000000000000 ) ) ;
#58 = APPROVAL_DATE_TIME ( #125, #30 ) ;
#59 = CARTESIAN_POINT ( 'NONE',  ( 0.000000000000000000, 0.000000000000000000, 3.000000000000000000 ) ) ;
#60 = PERSON_AND_ORGANIZATION_ROLE ( 'classification_officer' ) ;
#61 = APPROVAL_ROLE ( '' ) ;
#62 = EDGE_CURVE ( 'NONE', #94, #172, #50, .T. ) ;
#63 = VERTEX_POINT ( 'NONE', #103 ) ;
#64 = EDGE_LOOP ( 'NONE', ( #40, #48, #156, #49 ) ) ;
#65 = DIRECTION ( 'NONE',  ( 0.000000000000000000, 0.000000000000000000, 1.000000000000000000 ) ) ;
#66 = COORDINATED_UNIVERSAL_TIME_OFFSET ( 5, 0, .BEHIND. ) ;
#67 = PRODUCT_DEFINITION_FORMATION_WITH_SPECIFIED_SOURCE ( 'ANY', '', #143, .NOT_KNOWN. ) ;
#68 = DIRECTION ( 'NONE',  ( -0.000000000000000000, -0.000000000000000000, -1.000000000000000000 ) ) ;
#69 = PERSON_AND_ORGANIZATION_ROLE ( 'design_owner' ) ;
#70 = ADVANCED_FACE ( 'NONE', ( #39 ), #135, .T. ) ;
#71 = DIRECTION ( 'NONE',  ( 1.000000000000000000, 0.000000000000000000, -0.000000000000000000 ) ) ;
#72 = CLOSED_SHELL ( 'NONE', ( #155, #70, #76, #124 ) ) ;
#73 = PERSON_AND_ORGANIZATION ( #3, #27 ) ;
#74 = PERSON_AND_ORGANIZATION_ROLE ( 'design_supplier' ) ;
#75 = EDGE_CURVE ( 'NONE', #26, #63, #101, .T. ) ;
#76 = ADVANCED_FACE ( 'NONE', ( #162 ), #110, .T. ) ;
#77 = CARTESIAN_POINT ( 'NONE',  ( 15.00000000000000000, 1.836970198721029589E-15, 3.000000000000000000 ) ) ;
#78 = DIRECTION ( 'NONE',  ( 1.000000000000000000, 0.000000000000000000, 0.000000000000000000 ) ) ;
#79 = PERSON_AND_ORGANIZATION ( #3, #27 ) ;
#80 = DIRECTION ( 'NONE',  ( 1.000000000000000000, 0.000000000000000000, 0.000000000000000000 ) ) ;
#81 = CARTESIAN_POINT ( 'NONE',  ( 0.000000000000000000, 0.000000000000000000, 3.000000000000000000 ) ) ;
#82 = DIRECTION ( 'NONE',  ( -1.000000000000000000, 0.000000000000000000, 0.000000000000000000 ) ) ;
#83 = CARTESIAN_POINT ( 'NONE',  ( 0.000000000000000000, 0.000000000000000000, 3.000000000000000000 ) ) ;
#84 = CC_DESIGN_PERSON_AND_ORGANIZATION_ASSIGNMENT ( #73, #100, ( #67 ) ) ;
#85 = APPROVAL_STATUS ( 'not_yet_approved' ) ;
#86 = CALENDAR_DATE ( 2022, 24, 1 ) ;
#87 = PRODUCT_DEFINITION ( 'UNKNOWN', '', #67, #175 ) ;
#88 = COORDINATED_UNIVERSAL_TIME_OFFSET ( 5, 0, .BEHIND. ) ;
#89 = PRODUCT_DEFINITION_SHAPE ( 'NONE', 'NONE',  #87 ) ;
#90 = LOCAL_TIME ( 11, 16, 35.00000000000000000, #99 ) ;
#91 = ORIENTED_EDGE ( 'NONE', *, *, #75, .T. ) ;
#92 = CARTESIAN_POINT ( 'NONE',  ( -15.00000000000000000, 0.000000000000000000, 3.000000000000000000 ) ) ;
#93 = CC_DESIGN_PERSON_AND_ORGANIZATION_ASSIGNMENT ( #112, #74, ( #67 ) ) ;
#94 = VERTEX_POINT ( 'NONE', #106 ) ;
#95 = APPROVAL_STATUS ( 'not_yet_approved' ) ;
#96 = DIRECTION ( 'NONE',  ( 0.000000000000000000, 0.000000000000000000, 1.000000000000000000 ) ) ;
#97 = APPLICATION_PROTOCOL_DEFINITION ( 'international standard', 'config_control_design', 1994, #8 ) ;
#98 = CALENDAR_DATE ( 2022, 24, 1 ) ;
#99 = COORDINATED_UNIVERSAL_TIME_OFFSET ( 5, 0, .BEHIND. ) ;
#100 = PERSON_AND_ORGANIZATION_ROLE ( 'creator' ) ;
#101 = CIRCLE ( 'NONE', #5, 15.00000000000000000 ) ;
#102 = CIRCLE ( 'NONE', #136, 15.00000000000000000 ) ;
#103 = CARTESIAN_POINT ( 'NONE',  ( -15.00000000000000000, 0.000000000000000000, 3.000000000000000000 ) ) ;
#104 = DIRECTION ( 'NONE',  ( -1.000000000000000000, 0.000000000000000000, 0.000000000000000000 ) ) ;
#105 = APPROVAL_PERSON_ORGANIZATION ( #33, #128, #115 ) ;
#106 = CARTESIAN_POINT ( 'NONE',  ( 15.00000000000000000, 1.836970198721029589E-15, 0.000000000000000000 ) ) ;
#107 = CARTESIAN_POINT ( 'NONE',  ( 0.000000000000000000, 0.000000000000000000, 0.000000000000000000 ) ) ;
#108 = PERSON_AND_ORGANIZATION ( #3, #27 ) ;
#109 = VECTOR ( 'NONE', #147, 1000.000000000000000 ) ;
#110 = PLANE ( 'NONE',  #140 ) ;
#111 = PRODUCT_RELATED_PRODUCT_CATEGORY ( 'detail', '', ( #143 ) ) ;
#112 = PERSON_AND_ORGANIZATION ( #3, #27 ) ;
#113 = CALENDAR_DATE ( 2022, 24, 1 ) ;
#114 = CC_DESIGN_APPROVAL ( #30, ( #87 ) ) ;
#115 = APPROVAL_ROLE ( '' ) ;
#116 = EDGE_CURVE ( 'NONE', #63, #26, #174, .T. ) ;
#117 = EDGE_LOOP ( 'NONE', ( #10, #23 ) ) ;
#118 = CARTESIAN_POINT ( 'NONE',  ( 15.00000000000000000, 1.836970198721029589E-15, 3.000000000000000000 ) ) ;
#119 = CC_DESIGN_PERSON_AND_ORGANIZATION_ASSIGNMENT ( #129, #60, ( #35 ) ) ;
#120 = EDGE_LOOP ( 'NONE', ( #168, #91 ) ) ;
#121 = DIRECTION ( 'NONE',  ( 1.000000000000000000, 0.000000000000000000, -0.000000000000000000 ) ) ;
#122 = AXIS2_PLACEMENT_3D ( 'NONE', #107, #41, #137 ) ;
#123 = DIRECTION ( 'NONE',  ( 1.000000000000000000, 0.000000000000000000, 0.000000000000000000 ) ) ;
#124 = ADVANCED_FACE ( 'NONE', ( #139 ), #18, .F. ) ;
#125 = DATE_AND_TIME ( #138, #127 ) ;
#126 =( NAMED_UNIT ( * ) SI_UNIT ( $, .STERADIAN. ) SOLID_ANGLE_UNIT ( ) );
#127 = LOCAL_TIME ( 11, 16, 35.00000000000000000, #66 ) ;
#128 = APPROVAL ( #85, 'UNSPECIFIED' ) ;
#129 = PERSON_AND_ORGANIZATION ( #3, #27 ) ;
#130 = PERSON_AND_ORGANIZATION ( #3, #27 ) ;
#131 = MANIFOLD_SOLID_BREP ( 'Boss-Extrude1', #72 ) ;
#132 = AXIS2_PLACEMENT_3D ( 'NONE', #159, #65, #121 ) ;
#133 = ADVANCED_BREP_SHAPE_REPRESENTATION ( 'Web Model 19921_19921', ( #131, #122 ), #24 ) ;
#134 = LINE ( 'NONE', #118, #170 ) ;
#135 = CYLINDRICAL_SURFACE ( 'NONE', #2, 15.00000000000000000 ) ;
#136 = AXIS2_PLACEMENT_3D ( 'NONE', #42, #96, #80 ) ;
#137 = DIRECTION ( 'NONE',  ( 1.000000000000000000, 0.000000000000000000, 0.000000000000000000 ) ) ;
#138 = CALENDAR_DATE ( 2022, 24, 1 ) ;
#139 = FACE_OUTER_BOUND ( 'NONE', #117, .T. ) ;
#140 = AXIS2_PLACEMENT_3D ( 'NONE', #59, #15, #71 ) ;
#141 = SECURITY_CLASSIFICATION_LEVEL ( 'unclassified' ) ;
#142 = COORDINATED_UNIVERSAL_TIME_OFFSET ( 5, 0, .BEHIND. ) ;
#143 = PRODUCT ( 'Web Model 19921_19921', 'Web Model 19921_19921', '', ( #43 ) ) ;
#144 = SHAPE_DEFINITION_REPRESENTATION ( #89, #133 ) ;
#145 = APPROVAL ( #4, 'UNSPECIFIED' ) ;
#146 = ORIENTED_EDGE ( 'NONE', *, *, #62, .T. ) ;
#147 = DIRECTION ( 'NONE',  ( -0.000000000000000000, -0.000000000000000000, -1.000000000000000000 ) ) ;
#148 = CC_DESIGN_APPROVAL ( #128, ( #67 ) ) ;
#149 =( LENGTH_UNIT ( ) NAMED_UNIT ( * ) SI_UNIT ( .MILLI., .METRE. ) );
#150 = EDGE_CURVE ( 'NONE', #172, #94, #102, .T. ) ;
#151 = LOCAL_TIME ( 11, 16, 35.00000000000000000, #142 ) ;
#152 = PERSON_AND_ORGANIZATION ( #3, #27 ) ;
#153 = LOCAL_TIME ( 11, 16, 35.00000000000000000, #88 ) ;
#154 = DATE_AND_TIME ( #36, #90 ) ;
#155 = ADVANCED_FACE ( 'NONE', ( #173 ), #160, .T. ) ;
#156 = ORIENTED_EDGE ( 'NONE', *, *, #13, .T. ) ;
#157 = CARTESIAN_POINT ( 'NONE',  ( 0.000000000000000000, 0.000000000000000000, 0.000000000000000000 ) ) ;
#158 = AXIS2_PLACEMENT_3D ( 'NONE', #81, #1, #55 ) ;
#159 = CARTESIAN_POINT ( 'NONE',  ( 0.000000000000000000, 0.000000000000000000, 0.000000000000000000 ) ) ;
#160 = CYLINDRICAL_SURFACE ( 'NONE', #16, 15.00000000000000000 ) ;
#161 = PERSON_AND_ORGANIZATION_ROLE ( 'creator' ) ;
#162 = FACE_OUTER_BOUND ( 'NONE', #120, .T. ) ;
#163 = APPROVAL_DATE_TIME ( #154, #145 ) ;
#164 = APPROVAL_PERSON_ORGANIZATION ( #130, #145, #61 ) ;
#165 = CC_DESIGN_DATE_AND_TIME_ASSIGNMENT ( #32, #166, ( #87 ) ) ;
#166 = DATE_TIME_ROLE ( 'creation_date' ) ;
#167 = CC_DESIGN_SECURITY_CLASSIFICATION ( #35, ( #67 ) ) ;
#168 = ORIENTED_EDGE ( 'NONE', *, *, #116, .T. ) ;
#169 = ORIENTED_EDGE ( 'NONE', *, *, #45, .T. ) ;
#170 = VECTOR ( 'NONE', #171, 1000.000000000000000 ) ;
#171 = DIRECTION ( 'NONE',  ( -0.000000000000000000, -0.000000000000000000, -1.000000000000000000 ) ) ;
#172 = VERTEX_POINT ( 'NONE', #57 ) ;
#173 = FACE_OUTER_BOUND ( 'NONE', #25, .T. ) ;
#174 = CIRCLE ( 'NONE', #158, 15.00000000000000000 ) ;
#175 = DESIGN_CONTEXT ( 'detailed design', #28, 'design' ) ;
ENDSEC;
END-ISO-10303-21;
